Oops, an error
Loading. Please wait.

Una Carta Tab

51 views 1 this week
no commentswrite comment
1 2 3 4 5
3 more votes to show rating
add to favorites
launch autoscroll
font size
0
reset
how to read this tab
guitar tuner
×
Best way to learn
"Una Carta"
Autoscroll
slow
fast
+/-
esc
set tempo
stop
Seguimos Perdiendo
2006

Se podría decir que es una corrección
A LA otra trascripción.
Y si se dan cuenta
La canción armoniza en Dm,
Y en sus tonos consiguientes.

Normalmente se toca con quintas,
La Intro es donde se rasguean los acordes de Dm y A7.

Y si lo prefieren pueden hacer suspendidos en la parte del coro,
y/o meter octavas, jueguen con los acordes.

Espero les guste la tab. y si no, pues ni modo jejeje

Y pues a Lo que Venimos...

Intro

e|----5--5---6-5--|----|----5--5----5--|----|----5--5---6-5--|----|--5--|
B|----6---6-------|----|----5---5----5-|----|----6---6-------|----|--6--|
G|----7----7------|[x2]|----6----6-----|[x2]|----7----7------|[x2]|--7--|
D|----7---------7-|----|----5----------|----|----7---------7-|----|--7--|
A|-5--5-----------|----|----7----------|----|-5--5-----------|----|--5--|
E|----------------|----|-5--5----------|----|----------------|----|-----|

Verso 1
                    A7
   Querida mía, perdóname
                     Dm     Gm
Si te ofendo al escribirte
                    A7
Pero me siento muy triste
                  Dm   A7
Por lo que anoche paso


Verso 2
                     Dm   D7
Más no estoy arrepentido
                    Gm
Y si acaso tu lo estas
                    Dm
Ya no debes llorar más
                   A7
Tienes que tener valor
                 Dm           Gm
Pues si Dios te manda un hijo
                      Dm
Por lo más grande te pido
                    A7
Que no le pongas mi nombre
                      D  Bm Em A7
Para que no sea como yo

Coro

     D     Bm     Em      A7
Que nunca pruebe el alcohol

                     D
Que nunca pruebe la piedra
       Bm         Em     A7
Y que nunca se enamore
                 D
De las mujeres ajenas
     D     Bm      Em     A7
Que nunca sienta el rencor
                          D
Que a mi me corre en las venas
Gm                    Dm     E7
Porque es difícil soportar
        A7       D    Dm
Esta terrible condena?

SOLO

e|----------------------------------------------------------|
B|-------7~-------------7/8~--------------------------------|
G|--///7---7--9--7---7~-------7-9-7-9-7---------------------|
D|-----------------9---------------------9-9-7---//---------|
A|----------------------------------------------------------|
E|----------------------------------------------------------|

       Bm         Em     A7
Y que nunca se enamore
                 D
De las mujeres ajenas
     D     Bm      Em     A7
Que nunca pruebe el alcohol
                          D
Que a mi me corre en las venas
Gm                    Dm     E7
Porque es difícil soportar
        A7       D    Dm
Esta terrible condena  Ah... Ah... Ah...

*No Olviden Porfa Calificarme

MaRy, [nunca olvides que te amo] ...
[Eres lo mejor de mi vida]...
Suggest correction
Give kudos to tab author, rate the tab!
1 2 3 4 5
comments
print report bad tab
guest
You may want to rate the tab now too:
select rating
Wanna post a correction for this tab? Suggest correction