Oops, an error
Loading. Please wait.

Una Y Otra Vez Bass

91 views 1 this week
no commentswrite comment
1 2 3 4 5
3 more votes to show rating
add to favorites
×
Save as Personal and add changes to this tab that will be seen only by you. Learn more ›
×
You can save this tab as Personal to edit and correct it or add notes. All changes will be seen only by you. Learn more »
save as personal
new!
launch autoscroll
font size
0
reset
guitar tuner
Autoscroll
slow
fast
+/-
esc
set tempo
stop
SOLO 2 CIRCULOS... FACIL... NO?
HA!! I LA LETRA ESTA CORREGIDA...

Intro:

G|------------------|
D|---------4444-----|
A|-----4444----5555-|
E|-5555-------------|

G|------------------|
D|---------4444-----|
A|-----4444----5555-|
E|-5555-------------|x2

Hoy amanecio y quizas ni el sol brilló estaba ahí
y no me importaba
Se lo que paso entre los dos y comprendí que amar es siempre
siempre es dar amor

G|-----------------------------|
D|------2222-4444--------------|
A|-2222-----------5555-4/5-4/5-|
E|-----------------------------|

Y no te importo dejarme y camino solo como siempre
quizas deber ser (golpe)

G|------------------|
D|---------4444-----|
A|-----4444----5555-|
E|-5555-------------|x2

Una y otra vez pensaba y se aparecia tu cara
y te marchabas con un trago mas
Una y otra vez vagaba solo por las calles ¿dónde estas?
no lo quiero saber

G|-----------------------------|
D|------2222-4444--------------|
A|-2222-----------5555-4/5-4/5-|
E|-----------------------------|

Nada por hacer me queda solo esta pared para agarrarme
y no caer (golpe)

G|------------------|
D|---------4444-----|
A|-----4444----5555-|
E|-5555-------------|x2

Veo que mis dias pasan y me mato como puedo porque
no me queda nada
Ya no me divierto solo cambia mi razon de vivir
y no te importa

G|-----------------------------|
D|------2222-4444--------------|
A|-2222-----------5555-4/5-4/5-|
E|-----------------------------|

Ahora me queda emborracharme y perderme en la noche sin
motivo porque no lo hay (golpe)

G|------------------|
D|---------4444-----|
A|-----4444----5555-|
E|-5555-------------|x2

Una y otra vez miraba fuera del cristal y afuera
no habia nada
Una y otra vez te recordaba y quería olvidarte
a fuerza de alcohol

G|-----------------------------|
D|------2222-4444--------------|
A|-2222-----------5555-4/5-4/5-|
E|-----------------------------|

Si te extraño¿importa? y hay muchas lo dijiste pero vos
eras especial (golpe)

G|------------------|
D|---------4444-----|
A|-----4444----5555-|
E|-5555-------------|x2

Una y otra vez Una y otra vez
una y otra vez una y otra vez te kiero olvidar (x2)

G|------|
D|------|
A|-55---|FIN!
E|----5-|

golpe
Suggest correction
Give kudos to tab author, rate the tab!
1 2 3 4 5
comments
print report bad tab
guest
Wanna post a correction for this tab? Suggest correction