Oops, an error
Loading. Please wait.

Como Voy A Olvidarte Tab

92 views 1 this week
no commentswrite comment
1 2 3 4 5
2 more votes to show rating
add to favorites
launch autoscroll
font size
0
reset
how to read this tab
guitar tuner
Autoscroll
slow
fast
+/-
esc
set tempo
stop
Help us to improve Ultimate-Guitar.com Take our survey!
×
hola gente espero q les guste mi transquipcion es la primera
q mando


------14------17--16--14----------------
--14------14--------------17--14----14--
---------------------------------16-----
----------------------------------------
----------------------------------------
----------------------------------------

------14------17--16--14----------------
--14------14--------------17--14-----14-
---------------------------------16-----
----------------------------------------
----------------------------------------
----------------------------------------

------2-------5---4---2-----------------
--2-------2---------------5---2-------2-
----------------------------------4-----
----------------------------------------
----------------------------------------
----------------------------------------

--7---10---7---7---10---7---7---10---7--
----------------------------------------
----------------------------------------
----------------------------------------
----------------------------------------
----------------------------------------

--7---10---7--------------------7-------
---------------10---8---7-------8-------
----------------------------9---9-------
----------------------------------------
----------------------------------------
----------------------------------------

eso fue todo no es dificil asi q a practicarla es
muy buena esta cancion saludos a la tuna ucv - trujillo peru
Suggest correction
Give kudos to tab author, rate the tab!
1 2 3 4 5
comments
print report bad tab
guest
You may want to rate the tab now too:
select rating
Wanna post a correction for this tab? Suggest correction