Oops, an error
Loading. Please wait.

Chiquilla Tab

version 1
version 1

Whole song

Interactive

289 views 9 this week
no commentswrite comment
1 2 3 4 5
2 more votes to show rating
add to favorites
launch autoscroll
font size
0
reset
how to read this tab
guitar tuner
Autoscroll
slow
fast
+/-
esc
set tempo
stop
Help us to improve Ultimate-Guitar.com Take our survey!
×
Notation Legend
------

 h  = hammer-on
 p  = pull-off
 b  = bend
 r  = bend release
 /  = slide up/down
<5> = natural harmonic
[5] = artifical harmonic
 ~  = vibrato
 tr = trill


Main riff
      (1)                                                          (2)
E|--------------------------------------------------------------------
B|----6--6--6----6--6--6----7--7--7----9--9--9----7--7--7----6--6--6--
G|----5--5--5----5--5--5----6--6--6----8--8--8----6--6--6----5--5--5--
D|----3--3--3----3--3--3----4--4--4----6--6--6----4--4--4----3--3--3--
A|--------------------------------------------------------------------
E|--------------------------------------------------------------------


                                              strum     Por la mañana...
                                                         
E----------------------------------------------------------------------
B----6--6--6----6--6--6----7--7--7----9----7----6----------------------
G----5--5--5----5--5--5----6--6--6----8----6----5-------a(1) y repetir-
D----3--3--3----3--3--3----4--4--4----6----4----3-------hasta (2)------
A----------------------------------------------------------------------
E----------------------------------------------------------------------
                                                         
                                                        

        Y es que yo llevo dos dias sufriendo...

E|--------------------------------------------------------------------
B|--------------------------------------------------------------------
G|--------------------------------------------------------------------
D|-----------------------3-----3-----3-----3-----4-----4-----4-----4--
A|--------------------------3-----------3-----------4-----------4-----
E|--------------------1-----------1-----------2-----------2-----------


                             

E----------------------------------------------------------------------
B----------------------------------------------------------------------
G----------------------------------------------------------------------
D---------------------6-----6-----4-----4-----3-----3-----3-----3------
A------------------------6-----------4-----------3-----------3---------
E------------------4-----------2-----------1-----------1---------------


Y yo la miro...

E------------------------------------------------------------------------
B------------3-----------------------------------------------------------
G------------3---------------------------------------7-----------------
D------------3--------------8--8--8--8--8-------6--8--8--
A------------------------------------------------------------------------
E------------------------------------------------------------------------


                   Y ella no         me dice nada

E|---------------------------------------------------------------------
B|---------------------------------------------------------------------
G|-----------------7-------------------------------------------------
D|--8--8--8-------6--8~~---------------------------7---------
A|--------------------------------------------8--8--8--8--8-----6--8\--
E|---------------------------------------------------------------------


 Pero sus...    PM.------------------------------------|

E|--------------------------------------------------------------------
B|--------------------------------------------------------------------
G|--------6--6--6--6--6--6--6--6--6--6--6--6--6--6--6--6--------------
D|--------4--4--4--4--4--4--4--4--4--4--4--4--4--4--4--4--------------
A|--------4--4--4--4--4--4--4--4--4--4--4--4--4--4--4--4--------------
E|--------------------------------------------------------------------

                                                                
              
               PM.------------------------------------------|  Repetir
                                                               2 últimas
                                                               barras
E----------------------------------------------------------------------
B----------------------------------------------------------------------
G--------------5--5--5--5--5--5--5--5--5--5--5--5--5--5--5--5----------
D--------------3--3--3--3--3--3--3--3--3--3--3--3--3--3--3--3----------
A--------------3--3--3--3--3--3--3--3--3--3--3--3--3--3--3--3----------
E----------------------------------------------------------------------


    solo

E------------------------------------------------------------------------
B----13--13--10--11--13~~--13--11--------------------14----------14------
G----------------------------------13--11--11~~--11------11--13------13--
D------------------------------------------------------------------------
A------------------------------------------------------------------------
E------------------------------------------------------------------------


E|------------13--14------13--13\-------------------------------------
B|------------13--13--16--13--13\---------4h6--4-------4h6--4-------4h
G|--11--10-----------------------------5------------5------------5----
D|--------------------------------------------------------------------
A|--------------------------------------------------------------------
E|--------------------------------------------------------------------


E|-----------------------------------------------------------------------
B|--6--4-------4h6--4---------5h7--5-----5h7--5-----5~~------13--13--11--
G|----------5--------------6----------6----------6-----------13--13--11--
D|-----------------------------------------------------------------------
A|-----------------------------------------------------------------------
E|-----------------------------------------------------------------------


E|---------------------11b13------------------------------------------
B|--10--11--11--10--8-------------------------------------------------
G|--10--11--11--10--8-------------------------------------------------
D|--------------------------------------------------------------------
A|--------------------------------------------------------------------
E|--------------------------------------------------------------------


Ese silencio...
    PM.-----------------------------|            PM.------------------|


E-----------------------------------------------------------------------
B-----------------------------------------------------------------------
G----5--5--5--5--5--5--5--5--5--5--5----5--5--5----6--6--6--6--6--6--6--
D----3--3--3--3--3--3--3--3--3--3--3----3--3--3----4--4--4--4--4--4--4--
A----3--3--3--3--3--3--3--3--3--3--3----3--3--3----4--4--4--4--4--4--4--
E-----------------------------------------------------------------------


    PM.-----------|           PM.------------------------------------| 

E|----------------------------------------------------------------------
B|----------------------------------------------------------------------
G|--6--6--6--6----6--6--6----8--8--8------8--8--8--8--8--6--6--6--6--6--
D|--4--4--4--4----4--4--4----6--6--6------6--6--6--6--6--4--4--4--4--4--
A|--4--4--4--4----4--4--4----6--6--6------6--6--6--6--6--4--4--4--4--4--
E|----------------------------------------------------------------------


     PM.--------------------------------------------------| 

E|---------------------------------------------------------------------
B|---------------------------------------------------------------------
G|--6--6--6--5--5--5--5--5--5--5--5--5--5--5--5--5--5--5--5------------
D|--4--4--4--3--3--3--3--3--3--3--3--3--3--3--3--3--3--3--3------------
A|--4--4--4--3--3--3--3--3--3--3--3--3--3--3--3--3--3--3--3------------
E|---------------------------------------------------------------------


    Y yo la miro...

E-----------------------------------------------------------------------
B--------------3--------------------------------------------------------
G--------------3-------------------------------7----------------------
D--------------3------8--8--8--8--8-------6--8--8--8--
A-----------------------------------------------------------------------
E-----------------------------------------------------------------------


E|--------------------------------------------------------------------
B|--------------------------------------------------------------------
G|------------7-----------------------------------------------------
D|--8--8-------6--8~~-------------------------7---------------
A|-------------------------------------8--8--8--8--8-----6--8\--------
E|--------------------------------------------------------------------


    PM.------------------------------------------------------------|

E|--------------------------------------------------------------------
B|--------------------------------------------------------------------
G|--6--6--6--6--6--6--6--6--6--6--6--6--6--6--6--6--5--5--5--5--5--5--
D|--4--4--4--4--4--4--4--4--4--4--4--4--4--4--4--4--3--3--3--3--3--3--
A|--4--4--4--4--4--4--4--4--4--4--4--4--4--4--4--4--3--3--3--3--3--3--
E|--------------------------------------------------------------------
    Pero sus dos ojos negros...

   
    PM.------------------------------------------------------------|

E|----------------------------------------------------------------------
B|----------------------------------------------------------------------
G|--5--5--5--5--5--5--5--5--5--5----6--6--6--6--6--6--6--6--6--6--6--6--
D|--3--3--3--3--3--3--3--3--3--3----4--4--4--4--4--4--4--4--4--4--4--4--
A|--3--3--3--3--3--3--3--3--3--3----4--4--4--4--4--4--4--4--4--4--4--4--
E|----------------------------------------------------------------------


    PM.------------------------------------------------------------|

E|--------------------------------------------------------------------
B|--------------------------------------------------------------------
G|--6--6--6--6--5--5--5--5--5--5--5--5--5--5--5--5--5--5--5--5--------
D|--4--4--4--4--3--3--3--3--3--3--3--3--3--3--3--3--3--3--3--3--------
A|--4--4--4--4--3--3--3--3--3--3--3--3--3--3--3--3--3--3--3--3--------
E|--------------------------------------------------------------------


Y yo la quiero...

E|-----------------------------------------------------------------------
B|----3------------------------------------------------------------------
G|----3-----------------------------7--------------------------------
D|----3------8--8--8--8--8-------6--8--8--8--8--8--
A|-----------------------------------------------------------------------
E|-----------------------------------------------------------------------


                                                  Como los rayos...

E|---------------------------------------------------------------------
B|--------------------------------------------------------------7------
G|--7---------------------------------------------------------6------
D|-------6--8-------------------------7-------------6--4----4------
A|-------------------------8--8--8--8--8-----6--8\------6--4-----------
E|---------------------------------------------------------------------


                                              Ay chiquilla!

E|---------------------------------------------------------------------
B|---------6-----------7-----------------6------------6--6--6----6--6--
G|---------5-----------6-----------------5------------5--5--5----5--5--
D|------3--3------4----4----------3------3------------3--3--3----3--3--
A|------3---------4---------------3------------------------------------
E|---------------------------------------------------------------------


E|--------------------------------------------------------------------
B|--6--6----7--7--7----7--7--7--7----9--9--9----7--7--7----6--6--6----
G|--5--5----6--6--6----6--6--6--6----8--8--8----6--6--6----5--5--5----
D|--3--3----4--4--4----4--4--4--4----6--6--6----4--4--4----3--3--3----
A|--------------------------------------------------------------------
E|--------------------------------------------------------------------


           
                          
E|---------------------------------------------------------------------
B|--6--6--6--6------6--6--6--------7--7--7----7--7--7--7--------9------
G|--5--5--5--5------5--5--5--------6--6--6----6--6--6--6--------8------
D|--3--3--3--3------3--3--3--------4--4--4----4--4--4--4--------6------
A|---------------------------------------------------------------------
E|---------------------------------------------------------------------


                    hold

E|----------------------
B|------7------------6--
G|------6------------5--
D|------4------------3--
A|----------------------
E|----------------------
Suggest correction
Give kudos to tab author, rate the tab!
1 2 3 4 5
comments
print report bad tab
guest
You may want to rate the tab now too:
select rating
Wanna post a correction for this tab? Suggest correction