Oops, an error
Loading. Please wait.

El Mundo Tab

37 views 6 this week
no commentswrite comment
1 2 3 4 5
3 more votes to show rating
add to favorites
launch autoscroll
font size
0
reset
how to read this tab
guitar tuner
Autoscroll
slow
fast
+/-
esc
set tempo
stop
Help us to improve Ultimate-Guitar.com Take our survey!
×
Hola!! Esta es mi primera colaboración aquí, pero pa
ser la primera creo que está bastante bien. Corresponde
al solo que hace la guitarra al principio. El que quiera
corregir algo o hacer una sugerencia aquí dejo mi
mail: manu15paramo@


--\
 E |--4-5-7-9----7-7-5-5----4-4-2---2/5---------|
 B |--------------------------------------------|
 G |--------------------------------------------|
 D |--------------------------------------------|
 A |--------------------------------------------|
 E |--------------------------------------------|
--/


|--5-5-7-9----7-7-5-5----4-4-2---2/5------------|
|-----------------------------------------------|
|-----------------------------------------------|
|-----------------------------------------------|
|-----------------------------------------------|
|-----------------------------------------------|


|--5-5-7-9----7-7-5-5----4-4-2---2/4------------|
|-----------------------------------------------|
|-----------------------------------------------|
|-----------------------------------------------|
|-----------------------------------------------|
|-----------------------------------------------|


|--9-7-9---0----|--0-10-9-9-7-7-5-5-------------|
|---------------|---------------------2---------|
|---------------|-------------------------------|
|---------------|-------------------------------|
|---------------|-------------------------------|
|---------------|-------------------------------|


|----7-5-5-4-4-2-2------|--2-2-4---5--7--5------|
|--2-----------------3--|-----------------------|
|-----------------------|-----------------------|
|-----------------------|-----------------------|
|-----------------------|-----------------------|
|-----------------------|-----------------------|
Suggest correction
Give kudos to tab author, rate the tab!
1 2 3 4 5
comments
print report bad tab
guest
You may want to rate the tab now too:
select rating
Wanna post a correction for this tab? Suggest correction