Oops, an error
Loading. Please wait.

Me Siento Bien Tab

59 views 1 this week
no commentswrite comment
1 2 3 4 5
3 more votes to show rating
add to favorites
launch autoscroll
font size
0
reset
how to read this tab
guitar tuner
Autoscroll
slow
fast
+/-
esc
set tempo
stop
            Riff
  Int
e----------------------|---------------------------------
B----------------------|---------------------------------
G----------------------|------10-------9-------10--------
D--------------10-12-12|-------------------------12-10-12
A---------10-12--------|-10>12----10>12---10>12----------
E-10-10-13-------------|---------------------------------

e----------------------
B----------------------
G-------10--10-12-9----
D----------------------
A-10>12----------------
E----------------------

e-------13-10-------10-10sostenida-8-----------------
B-10-13-------13-10------------------10-8------------
G----------------------------------------10-7-10-----
D----------------------------------------------------
A----------------------------------------------------
E----------------------------------------------------


e------|--------------------|  e--------
B------||------------------||  B--------
G------||.-----------------||  G---10---
D--7-7-||.----------7-7----||  D---12---
A--5-5-||-5-5--7-7--5-5----||  A---12---
E------|--3-3--5-5----------|  E---10---
    1      2    3    1             4


1                      2 3
Todo el dia a trabajar

1                      2 3
para la noche de gozar

1                      2 3
esperando una canción

1                         2 3
que me ayude a estar mejor

4                   2 3
La cadena se rompió

4                     2 3
cuando un acorde sonó

4                        2 3
y ahora que estamos aquí

4                      2 3
ven y canta junto a mí

Estribillo:

e------------------------------------
B------------------------------------
G------------------------------------
D-8---7----7-5-7---------------------
A-8---7----5-3-5-----5--5------------
E-6---5--------------3--3------------
  5   6     7        8  8

5             6
Creo que ya brilla el sol

          7                      8 8
por lo menos voy sintiendo tu calor

5            6
Es así como soy feliz

e------------------------------------
B------------------------------------
G------------------------------------
D-----------------7-5-7--------------
A-0--3----5--5----5-3-5--------------
E------------------------------------
  ME SIEN-TO BIÉN                     X2
e------------------------------------
B------------------------------------
G------------------------------------
D------------------------------------
A---------------5-3-5----------------
E---------------3-1-3----------------
  ME SIENTO BIÉN

¡AU! TODO EL RIFF DEL PRINCIPIO

1                         2 3
Me he cansado de estudiar.

1                      2 3
No me puedo concentrar.

1                    2 3
Necesito una canción

1                          2 3
que me ayude a estar mejor.

4                        2 3
Llevo noches sin dormir,

4                      2 3
hoy no he podido salir.

4                     2 3
Voy buscando una señal

4                    2 3
que me pueda consolar

========Estribillo========

¡AU!(solo la parte int)

Riff rumbero:

e------------|----------------|-------
B----3-2-1-0-||------3-2-1-0-||-------
G-0-2-2-2-2--||.----2-2-2-2--||x3
D------------||.-0-3---------||-------
A------------||--------------||-------
E------------|----------------|-------

solo

e-10s12-12--10-------12-10-----12b13-
B----------------8h10-------10-------
G------------------------------------
D------------------------------------
A------------------------------------
E------------------------------------
          (muy rapido)
e-12-10---|-------------------------------|
B------10-|------------------------8-10-11|
G---------|10p9---10p9---9h10h12-10-------|
D---------|----12-----12------------------|
A---------|-------------------------------|
E---------|-------------------------------|

e----12-12--10-------12-10-----12-13--12-10--
B-----------------10--------10-------------10
G------------------------------------


e-10-13-17--15sostenida--------------
B------------------------------------
G------------------------------------

Rapeado:

He buscado en el dial,
no la he podido encontrar.
Miro la televisión,
falta la imaginación.
Se que algo no anda bien
y que tiene que cambiar
necesito un canción
¡Que me ayude a estar mejor!

======Estribillo a one more time===

(como en el estribillo)
Tu también (tu también)


yo también (yo también)


Me siento bién (me siento bién) Me siento bién (me siento bién)


me siento bién,me siento bién,me siento bién,me siento


bien(varias veces.) Int dos veces y ya está
Suggest correction
Give kudos to tab author, rate the tab!
1 2 3 4 5
comments
print report bad tab
guest
Wanna post a correction for this tab? Suggest correction