Oops, an error
Loading. Please wait.

Quiero Tener Tu Presencia Tab

version 1
version 1

Whole song

187 views 3 this week
no commentswrite comment
1 2 3 4 5
3 more votes to show rating
add to favorites
launch autoscroll
font size
0
reset
how to read this tab
guitar tuner
×
Best way to learn
"Quiero Tener Tu Presencia"
Autoscroll
slow
fast
+/-
esc
set tempo
stop
Para hacer el famoso Riff
de esta canción basta con coger tres posiciones con
la mano y arpegiar ( ">"=derrapar el dedo de un traste a otro)

Posiciónes a las   Intro-Riff 1
que acostumbrarse       |
        |               |
        |               |
E|-12-|----|-----|--------12----------------------------|
B|-9--|-10-|-12-||----9------9-----(10)--10--->--12-----||
G|-9--|-9--|-11-||------9------9----(9)----9-->----11---||
D|-9--|-11-|-13-||-9-----9------9---11------11>13----13-||
A|----|----|----||--------------------------------------||
E|----|----|-----|--------------------------------------|
                     (Quie..                 ...A MI LA...
               ...DO)
Intro x4

1
 Quiero tener tu presencia quiero que estes a mi lado
1                                                      1(x2)
 No quiero hablar del futuro no quiero hablar del pasado

1
 No quiero hablar de esos niños que están tan desamparados
1                                                       1(x2)
 no quiero hablar de la querra no quiero hablar del parado

Estribillo------------------

   2    3      4
E|---|------|--------|
B|---|------|--------|
G|-9-|------|--------|
D|-9-|-7--9-|-7--6---|
A|-7-|-7--9-|-7--6---|
E|---|-5--7-|-5--4---|

2                       3    2
 Quiero tener tu presencia a a
                        4
Quiero que estes a mi lado o o

 |||5 (Tapando ligeramente con el lateral
de la mano para conseguir un sonido corto)

E|---------------------------------|
B|---------------------------------|
G|-6-6-6-6-6-6-6-6-7-7-7-----------|
D|-6-6-6-6-6-6-6-6-7-7-7-9---9-9-9-|
A|-4-4-4-4-4-4-4-4-5-5-5-9---9-9-9-|
E|-----------------------7---7-7-7-|

    6 (Sigue con sonido corto)
E|---------------------------------|
B|---------------------------------|
G|-9-9-9-9-9-9-9-9-----------------|
D|-9-9-9-9-9-9-9-9-7-7-7-9---9-9-9-|
A|-7-7-7-7-7-7-7-7-7-7-7-9---9-9-9-|
E|-----------------5-5-5-7---7-7-7-|

5
 No quiero hablar de la lucha si no estamos preparados
6
 No quiero hablar de la lucha si no estamos preparados.
----------------------------

Vuelta al riff 1, 2 veces.

1
 Quiero buscar un camino que no se encuentre embarrado,
1                                                       1(x2)
 no quiero hablar del mendigo no quiero hablar del esclavo.

1
 No quiero hablar pero hablo que empiezo a estar ya cansado
1                                                  1(x2)
 de muy buenas intenciones sin entregar nada a cambio

---Estribillo---

(h=golpear en el traste con otro dedo.
 b=levantar el dedo de la cuerda)

Riff 1+Prev solo:

E|-----------------------------------|
B|----9------9h10b9--------10--------|
G|------9---------11-9--------9------|
D|-9-----9-------------9>11----11>13-|
A|-----------------------------------|
E|-----------------------------------|

 Solo

E|-19-19-19-19-19...21-19-21--19--21-19-21-19--18h17b18-|
B|-------------------------------------|
G|-------------------------------------|
D|-------------------------------------|
A|-------------------------------------|
E|-------------------------------------|

E|-19--19-19--21--19--------------17h18h20-20-20-|
B|------------------------17h18h20-------------|
G|-------------------17h19-----------------|
D|-------------------------------------|
A|-------------------------------------|
E|-------------------------------------|

E|-17-16-17-16-14-16-14----14----------14-----------14-|
B|----------------------17----17-16-17----17------17---|
G|------------------------------------------16--16-----|
D|---------------------------------|
A|---------------------------|
E|-----------------------|

E|-----------14-16-17-16-14-12-11-11-12-14-11-12---|
B|--------17-----------------------------|
G|-16-16---------------------------------|
D|---------------------------------|
A|---------------------------|
E|-----------------------|
         final
E|-12--12-12-12------------------------------------|
B|---------------12-----------14-14-14-12--12------|
G|------------------13-14--14-----------------11-9-|
D|-----------------------------------------|
A|---------------------------|
E|-----------------------|

Estribillo + 2 3(x2)

(solo bajo)

(quiero tener tu presencia) no quiero que des la espalda
(Quiero...)Hay que tomarselo en serio
(...) basta de palabras,
(...) busquemos remedio,
¡Vamos a hacer el camino!
(...) Con decisión y coraje,
(...) sin pensar que el viaje,
(...) llegue a su destino,

                2             3 2 5
Estribillo  ...Preparadoooooooos

   2    5
E|---|-----------------------------|
B|---|-----------------------------|
G|-9-|-------------------9=========|
D|-9-|-7--7--7--9--9--9--9=========|
A|-7-|-7--7--7--7--7--7--7=========|
E|---|-5--5--5--7--7--7------------|

Si alguien cree que hay errores o dudas me lo escribis.
Suggest correction
Give kudos to tab author, rate the tab!
1 2 3 4 5
comments
print report bad tab
guest
You may want to rate the tab now too:
select rating
Wanna post a correction for this tab? Suggest correction