Oops, an error
Loading. Please wait.

Un Beso Y Una Flor Tab

145 views 1 this week
no commentswrite comment
1 2 3 4 5
3 more votes to show rating
add to favorites
launch autoscroll
font size
0
reset
how to read this tab
guitar tuner
×
Best way to learn
"Un Beso Y Una Flor"
Autoscroll
slow
fast
+/-
esc
set tempo
stop
E |-------------------------------------------------------------|
B |-----10/12------10h12p10---10-----10h12--10-------10---------|
G |-7-12--------------------11-----------------12--12--12--12---|
D |-------------------------------------------------------------|
A |-------------------------------------------------------------|
E |-------------------------------------------------------------|

E |----------------------------------------------|
B |-13-14-14/16-16--------14-16-16/18-16-16------|
G |----------------------------------------------|
D |----------------------------------------------|
A |----------------------------------------------|
E |----------------------------------------------|


E |---------------------------------------------------|
B |----------16----15/16--15/16--15/16---15-----------|
G |-12-14/16-------14/15--14/15--14/15---14--11/12----|
D |---------------------------------------------------|
A |---------------------------------------------------|
E |---------------------------------------------------|


E |--------------------------------------------------------------------|
B |-14-16-16/18---18-18-16-13---------13/14--13-14/16-14-13h14p13------|
G |--------------------------------13-----------------------------13---|
D |------------------------------13---------------------------------14-|
A |--------------------------------------------------------------------|
E |--------------------------------------------------------------------|


E |------------------------10---------------------------------|
B |---------------------12----13-12-10-8----10/8/10-----------|
G |-------12----9h10h12---------------------------------------|
D |-12-12-----------------------------------------------------|
A |-----------------------------------------------------------|
E |-----------------------------------------------------------|


E |-------15/17--15------------------------------------|
B |-12--------------17-15------15----------------------|
G |------------------------17-----17-15/12-------------|
D |----------------------------------------------------|
A |----------------------------------------------------|
E |----------------------------------------------------|
Suggest correction
Give kudos to tab author, rate the tab!
1 2 3 4 5
comments
print report bad tab
guest
You may want to rate the tab now too:
select rating
Wanna post a correction for this tab? Suggest correction