Oops, an error
Loading. Please wait.

Ven Sin Temor Chords

version 2
version 2

Whole song

27 views 1 this week
no commentswrite comment
1 2 3 4 5
3 more votes to show rating
add to favorites
launch autoscroll
font size
0
reset
transpose
0
reset
display chords
guitar tuner
×
Best way to learn
"Ven Sin Temor"
Autoscroll
slow
fast
+/-
esc
set tempo
stop
INTRO: (C-Dm-G-F-C)
E|--------------------------------------12-10-8-5------------------------|
B|--------------------------------------12-10-8-6------------8-8---------|
G|------5----9----7-5-7-5-----5-7-------------------------5--7-7---------|
D|-5--7---------------------7-----------------------5-5h7----------------|
A|-----------------------------------------------------------------------|
E|-----------------------------------------------------------------------|

E|-----------------------------------------------------------------------|
B|-6-5-6-5---------------------------------------------------------------|
G|--------5----------5-5h7-5---------------------------------------------|
D|----------5-5h7--------------------------------------------------------|
A|-----------------------------------------------------------------------|
E|-----------------------------------------------------------------------|


   C
Y UNA VEZ A SOLAS
   Dm
CONTIGO ME ENCONTRÉ
   G
Y SIN SABER LO QUE PASÓ
   F            C
RECUERDO QUE LLORÉ

C
FUE MI AMOR ACASO
Dm
UNA INSENSATEZ
  G
ENTONCES ME DIJISTE NO
  F            C
AHORA QUE TAL VEZ


CORO
           F
VEN SIN TEMOR, AHA

QUE CON MI AMOR, NA NA NA NA
    C
Y ASÍ, TAL VEZ PODRÁS SOÑAR, NA NA NA NA
   F
Y TÚ SABRÁS QUE YO JAMÁS, NA NA NA NA
   C
SERÉ FELIZ SIN TU QUERER, NA NA NA NA
 Dm             G      C
SIN TEMOR VEN JUNTO A MÍ

(REPETIR)


(INTRO)


   C
Y UNA VEZ A SOLAS
   Dm
CONTIGO ME ENCONTRÉ
   G
Y SIN SABER LO QUE PASÓ
   F            C
RECUERDO QUE LLORÉ

 C
NUNCA MÁS SUCEDERÁ
    Dm
SIN TI NO PUEDO AMAR
G
YA ENCONTRÉ LA SOLUCIÓN
   F            C
VOLVAMOS A EMPEZAR


CORO
           F
VEN SIN TEMOR, AHA

QUE CON MI AMOR, NA NA NA NA
    C
Y ASÍ, TAL VEZ PODRÁS SOÑAR, NA NA NA NA
   F
Y TÚ SABRÁS QUE YO JAMÁS, NA NA NA NA
   C
SERÉ FELIZ SIN TU QUERER, NA NA NA NA
 Dm             G      C
SIN TEMOR VEN JUNTO A MÍ


(REPITE 2 VECES MAS)
Suggest correction
Give kudos to tab author, rate the tab!
1 2 3 4 5
comments
print report bad tab
guest
You may want to rate the tab now too:
select rating
Wanna post a correction for this tab? Suggest correction