Oops, an error
Loading. Please wait.

Lament Bass Tab

249 views 1 this week
no commentswrite comment
1 2 3 4 5
please rate
add to favorites
launch autoscroll
font size
0
reset
guitar tuner
Tab Pro tools
  • play this tab
  • loop segment
  • change instrument
  • show fretboard
  • metronome
×
Best way to learn
"Lament"
Autoscroll
slow
fast
+/-
esc
set tempo
stop
Contributor
Difficulty
Tuning
novice
D A D G B E
-------------------------------------------------------------------------------
			     Lament - Seigmen
-------------------------------------------------------------------------------

Tabbed By : Dampveivals
e-mail: bigbudd55@hotmail.com

Tuning:drop D

|you will figure out the timeing and how long you should hold the notes  | |when you
the song. listen to the song and learn when the different | |themes will be played. there
be some finesse to do with slides and| |shit but this is a pretty correct tab            
                      |


First an intro with guitar and key strings before theme 1 begins


THEME 1

G|-----------------------------------------------------------------------------|
D|-----------------------------------------------------------------------------|
A|-----------------------------------------------------------------------------|
D|12\--0--0-3-0--0-0-3--0--0-7-0--0-0-7--0--0-8-0--0-0-8--0--0-7-0--0-0-7------|


G|-----------------------------------------------------------------------------|
D|-----------------------------------------------------------------------------|
A|-----------------------------------------------------------------------------|
D|0--0-3-0--0-0-3--0--0-7-0--0-0-7--0--0-8-0--0-0-8--0--0-7-0--0-0-12\---------|


THEME 2      play this two times before he starts singing

G|-----------------------------------------------------------------------------|
D|-----------------------------------------------------------------------------|
A|-----------------------------------------------------------------------------|
D|0x--0-3-0x--0x--0-3---0x--0-2-0x--0x--0-2---0x--0-5-0x--0x--0-5--------------|
 |0x--0-3-0x--0x--0-3-5--------------------------------------------------------|

REF
G|-----------------------------------------------------------------------------|
D|-----------------------------------------------------------------------------|
A|------5---------5----------5--------5----------------------------------------|
D|0x--0-----0x--0-----0x--0-----0x--0------------------------------------------|

this is pretty much how it's played
later in the song the ref will be played many times
so  the REF is a little bit of improvising but it goes in D

| /  slide up
| \  slide down
| h  hammer-on
| p  pull-off
| ~  vibrato
| +  harmonic
| x  Mute note
===============================================================================
comments
We did not receive enough feedback on this tab! Please rate:
print report bad tab
1 2 3 4 5
I want to post or [tab]
guest
You may want to rate the tab now too:
select rating
Please do not post tabs as comments. Select "correction" instead!