Oops, an error
Loading. Please wait.

Big Difference Bass

21 views 1 this week
no commentswrite comment
1 2 3 4 5
3 more votes to show rating
add to favorites
launch autoscroll
font size
0
reset
guitar tuner
×
Best way to learn
"Big Difference"
Autoscroll
slow
fast
+/-
esc
set tempo
stop
Esta es la mas hardcorera de todo el disco
esta la toco con mi banda
y a veces cuando hecho palomasos con wiwi
asi es que no hay excusa para que digan que esta mal
aprendanse a limpiar las orejas y la cola
los que piensen que este mal
los que puedan sacarla 
es solo para que agilicen dedos ok
suerte

Sekta core
Big diference

Riff 1 (X 2)
G -----------------------------
D -----------------------------
A ----------------------1---1--
E -0-1-3-0-6-5--0-1-3-0---3----

Riff 2
G ----------------------------------------------------
D ----------------------------------------------------
A ----------------------------------------------------
E -7-6-5-4-3-1--7-6-5-4-3-1--7-6-5-4-3-1-0-0-0-0-0-0?

Riff 3
G ----------------------------------------
D ----------------------------------------
A ----------------------------------------
E -0-0-0-0-0-3--0-0-0-0-0-6--0-0-0-0-0-7--

Riff 2
G ----------------------------------------------------
D ----------------------------------------------------
A ----------------------------------------------------
E -7-6-5-4-3-1--7-6-5-4-3-1--7-6-5-4-3-1-0-0-0-0-0-0?

Riff 3
G ----------------------------------------
D ----------------------------------------
A ----------------------------------------
E -0-0-0-0-0-3--0-0-0-0-0-6--0-0-0-0-0-7--

Riff 2
G ----------------------------------------------------
D ----------------------------------------------------
A ----------------------------------------------------
E -7-6-5-4-3-1--7-6-5-4-3-1--7-6-5-4-3-1-0-0-0-0-0-0?

Solo bateria

Riff 1 (X 4)
G -----------------------------
D -----------------------------
A ----------------------1---1--
E -0-1-3-0-6-5--0-1-3-0---3----

Riff 3
G ----------------------------------------
D ----------------------------------------
A ----------------------------------------
E -0-0-0-0-0-3--0-0-0-0-0-6--0-0-0-0-0-7--

Riff 2
G ----------------------------------------------------
D ----------------------------------------------------
A ----------------------------------------------------
E -7-6-5-4-3-1--7-6-5-4-3-1--7-6-5-4-3-1-0-0-0-0-0-0?

Mas lento riff 3
G ----------------------------------------
D ----------------------------------------
A ----------------------------------------
E -0-0-0-0-0-3--0-0-0-0-0-6--0-0-0-0-0-7--

Riff 2
G ----------------------------------------------------
D ----------------------------------------------------
A ----------------------------------------------------
E -7-6-5-4-3-1--7-6-5-4-3-1--7-6-5-4-3-1-0-0-0-0-0-0?

eso es todo
sencilla no
dudas a mi mail
Suggest correction
Give kudos to tab author, rate the tab!
1 2 3 4 5
comments
print report bad tab
guest
You may want to rate the tab now too:
select rating
Wanna post a correction for this tab? Suggest correction