Oops, an error
Loading. Please wait.

Delfino Tab

71 views 1 this week
no commentswrite comment
1 2 3 4 5
3 more votes to show rating
add to favorites
launch autoscroll
font size
0
reset
how to read this tab
guitar tuner
Autoscroll
slow
fast
+/-
esc
set tempo
stop
Help us to improve Ultimate-Guitar.com Take our survey!
×
Ahi les va una clasica de la Sekta  no conozca
esta, la neta mejor que se salga de aqui.

Afinacion standard


Intro
e------------------------------------------------------
b------------------------------------------------------
g------------------------------------------------------
d---5---7-8-5---7-8-5---7-8-8-7------------------------
a---3---5-6-3---5-6-3---5-6-6-5------------------------
e------------------------------------------------------

1er. verso y 2o verso
-------------------------------------------------------
-------------------------------------------------------
-------------------------------------------------------
-------------------------------------------------------
----0000-3333-5555-6666--------------------------------
-------------------------------------------------------

'Lo encontre en el camino a Delfino el asesino....'


Coro
-------------------------------------------------------
-------------------------------------------------------
-------------------------------------------------------
-------------------------------------------------------
---5555--888-777---------------------------------------
---3333--666-555---------------------------------------

'So so   DELFINO ....'

3er verso

Ritmo ska
-------33---------66---------33--------66--------------
-------33---------66---------33--------66--------------
-------44---------77---------44--------77--------------
-------55---------88---------55--------88--------------
-------55---------88---------55--------88--------------
-------33---------66---------33--------66--------------

'Delfino esta escondido, muchos dicen que esta muerto...'


Cuando la guitarra entra con wah hay unos acordes de mas
--33---66--33--66--33--66--8--8---66-------------------
--33---66--33--66--33--66--8--8---66-------------------
--44---77--44--77--44--77--9--9---77-------------------
--55---88--55--88--55--88--10-10--88-------------------
--55---88--55--88--55--88--10-10--88-------------------
--33---66--33--66--33--66--8--8---66-------------------

Casi para acabar la cancion hay otro coro que tambien tiene
unos acordes de mas

--------------------------------------------------------
--------------------------------------------------------
--------------------------------------------------------
--------------------------------------------------------
--555--888-777--10101010101--3-4-5----------------------
--333--666-555---8-8-8-8-8---1-2-3----------------------


L cancion acaba en Re


Asi de facil, esta muy chida esta rola, lastima que todos uds.
no quieren sacar rolas de la Sekta y subirlas.

Califiquenla
Suggest correction
Give kudos to tab author, rate the tab!
1 2 3 4 5
comments
print report bad tab
guest
You may want to rate the tab now too:
select rating
Wanna post a correction for this tab? Suggest correction