Oops, an error
Loading. Please wait.

El Fantasma De La Rana Bass Tab

80 views 1 this week
no commentswrite comment
1 2 3 4 5
3 more votes to show rating
add to favorites
launch autoscroll
font size
0
reset
guitar tuner
Autoscroll
slow
fast
+/-
esc
set tempo
stop
Help us to improve Ultimate-Guitar.com Take our survey!
×
Hay les va este rolon de la secta para los que la esperaban en bajo, la 
canción es facil solo escuchenla y denle el ritmo

El comienzo es simple, solo se repite esto siguiendo
la bateria
E---1-1-1-1---


Despues del pequeño intro y durante todo el verso
('una noche enla colonia...')
va lo siguiente.
G-----------------------------------------
D------8--------6--------4--------5-------
A--6-9---9--4-7---7--2-5---5--3-6---6-----
E-----------------------------------------


Cuando enra la voz del wiwi y dice 'el fantasma de la rana,
el fantasma de
de la rana...' cambia a
G------8------------------
D--6-9---9------8---------
A-----------6-9---9-------
E-------------------------


Y en el coro se toca lo siguiente(tiene algunos bajeos extras 
sobre el mismo traste solo escuchenla)
A--5-------3--------1--------0--


La ultima variacion es cuando se toca la parte lenta
donde cotardo canta 'hasta que una noche...'
G-------------------------------------
D------7-------6-------4-------3------
A--5-8-----4-7-----2-5-----1-4---4----
E-------------------------------------


Aber que les parece mi tabulado ya que es el primero que hago hojala y les 
guste(arriba el ska mexicano). Un saludo para el pavel, jachis, tepo, heskc, 
nazi(simon), y para mi el balin(de los chiras pelas), tambien para toda la 
banda de la Voca8 el chente, mariguas, tayson, chalo, medusa, topo, giui, 
delia, may, carlitos, reno, haqui, osana, panda, eunice, lorena, etc.
Suggest correction
Give kudos to tab author, rate the tab!
1 2 3 4 5
comments
print report bad tab
guest
You may want to rate the tab now too:
select rating
Wanna post a correction for this tab? Suggest correction