Oops, an error
Loading. Please wait.

El Fantasma De La Rana Tab

version 2
version 2

Whole song

79 views 1 this week
no commentswrite comment
1 2 3 4 5
3 more votes to show rating
add to favorites
×
Save as Personal and add changes to this tab that will be seen only by you. Learn more ›
×
You can save this tab as Personal to edit and correct it or add notes. All changes will be seen only by you. Learn more »
save as personal
new!
launch autoscroll
font size
0
reset
how to read this tab
guitar tuner
Autoscroll
slow
fast
+/-
esc
set tempo
stop
Dividi la rola en versos para k no se confundan...
(mas grafico no se puede...... ;-) (*_*)

:::::::::::::::::::::::::::::::::::::::::::::::::::::::::::::::::::
- - - Bajo - - -
         |I N T R O se utiliza con las trompetas |
pre-intro|y con los versos (escuchenla primero)  |
         |  A        G        F        E         |
E--------|---------------------------------------|
B--------|---------------------------------------|
G--------|---------------------------------------|
D--------|---------------------------------------|
A--------|---4-7-4----2-5-2----0-3-0-------2-----|
E-55-55--|--5--------3--------1--------0-4---4---|


- - - la lyra - - -
CON RITMO SKA
   A   G   F   E   (los acordes de preferencia con cejilla....)
E--5---3---1---0------------------------------------7---------4--
B--5---3---1---0-- este E (Mi) lo pueden hacer    --9---------5--
G--6---4---2---1-- de otra forma x ejemplo asi:   --9- o asi -4--
D--7---5---3---2------------------------------------9------------
A--7---5---3---2------------------------------------7------------
E--5---3---1---0-------------------------------------------------


Una noche en la colonia apareció una sombra rara
ahora cuenta la leyenda, es el fantasma de la rana.
Todos así le decían los que eran de la banda
pues así lo conocían los 'Rockeros' de la raza...

:::::::::::::::::::::::::::::::::::::::::::::::::::::::::::::::::::

luego-...dicen 'la fantasma del rana' .(asi dicen ellos jeje).....
                      lo dicen 4 veces .........
--lyra--               --bajo--
    E     Bm             E          Bm
e---7-----7--         e------------------------|
B---9-----7--         B------------------------|
G---9-----7--   2     G------------------------|    2
D---9-----9-- veces   D----------------1-4-1---|  veces
A---7-----9--         A-------2------2---------|
E---7-----7--         E---0-4---4--------------|


despues dicen 'el fantasma de la rana' un poco mas lento
y con ritmo metalero tanto la guitarra como el bajo

lyra                      bajo (solo puntean las notas jejeje)
   A   G   F   E           A   G   F   E
E-------------------     -------------------
B-------------------     -------------------
G-------------------     -------------------   2 veces.....
D--7---5---3---2----     -------------------
A--7---5---3---2----     -------------------
E--5---3---1---0----    E--5---3---1---0----

:::::::::::::::::::::::::::::::::::::::::::::::::::::::::::::::::::


despues va el intro......de nuevo....

   A        G        F        E         |
E---------------------------------------|
B---------------------------------------|
G---------------------------------------|
D---------------------------------------|
A---4-7-4----2-5-2----0-3-0-------2-----|
E--5--------3--------1--------0-4---4---|


- - - la lyra - - -

   A   G   F   E          + D lo mismo....
E--5---3---1---0------------------------------------7---------4--
B--5---3---1---0-- este E (Mi) lo pueden hacer    --9---------5--
G--6---4---2---1-- de otra forma x ejemplo asi:   --9- o asi -4--
D--7---5---3---2------------------------------------9------------
A--7---5---3---2------------------------------------7------------
E--5---3---1---0-------------------------------------------------

Su alma pena por las noches
pena sin hacernos nada, anda buscando al culpable
que lo envió a la chingada.
Tenía pedos con la banda, no había quien lo derrotara
y se organizó la banda para darle una apañada.

:::::::::::::::::::::::::::::::::::::::::::::::::::::::::::::::::::


.....luego..va de nuez......

'la fantasma del rana'  lo dicen 4 veces .........

--lyra--               --bajo--
    E     Bm             E          Bm
e---7-----7--         e------------------------|
B---9-----7--         B------------------------|
G---9-----7--         G------------------------|    2 Veces
D---9-----9--         D----------------1-4-1---|
A---7-----9--         A-------2------2---------|
E---7-----7--         E---0-4---4--------------|


despues dicen 'el fantasma de la rana' lento
con ritmo metalero guitarra y bajo

lyra                      bajo (solo puntean las notas jejeje)
   A   G   F   E           A   G   F   E
E-------------------     -------------------
B-------------------     -------------------
G-------------------     -------------------   2 veces.....
D--7---5---3---2----     -------------------
A--7---5---3---2----     -------------------
E--5---3---1---0----    E--5---3---1---0----

:::::::::::::::::::::::::::::::::::::::::::::::::::::::::::::::::::

ahora entra el ritmo reggae con la lyra....
y el bajo......tiene k improvisar tantito....me dio hueva ponerlo jajaja
   A   G   F   E
E--5---3---1---0------------------------------------7---------4--
B--5---3---1---0-- este E (Mi) lo pueden hacer    --9---------5--
G--6---4---2---1-- de otra forma x ejemplo asi:   --9- o asi -4--
D--7---5---3---2------------------------------------9------------
A--7---5---3---2------------------------------------7------------
E--5---3---1---0-------------------------------------------------
'reggae' 'reggae' 'reggae' 'reggae' 'reggae' 'reggae'

dicen hablando esto:

Hasta que una noche de mitote
cambió la historia de la rana, ahora yace en el infierno
esperando su venganza.

y esto gritado:
El fantasma dee laaa Raaaanaaaaa...jow ...ska ska....

::::::::::::::::::::::::::::::::::::::::::::::::::::::::::::::::::::


y entra un riff de 'low ska'....ska lento.....

 - - Lyra....- -      y el bajo improvisa con el riff del intro....
   A   G   F   E
E--5---3---1---0------------------------------------7---------4--
B--5---3---1---0-- este E (Mi) lo pueden hacer    --9---------5--
G--6---4---2---1-- de otra forma x ejemplo asi:   --9- o asi -4-- 2 veces
D--7---5---3---2------------------------------------9------------
A--7---5---3---2------------------------------------7------------
E--5---3---1---0-------------------------------------------------


:::::::::::::::::::::::::::::::::::::::::::::::::::::::::::::::::::::


luego.....el verso


   A        G        F        E         |
E---------------------------------------|
B---------------------------------------|
G---------------------------------------|
D---------------------------------------|
A---4-7-4----2-5-2----0-3-0-------2-----|
E--5--------3--------1--------0-4---4---|


- - - la lyra - - -

   A   G   F   E          + D lo mismo....
E--5---3---1---0------------------------------------7---------4--
B--5---3---1---0-- este E (Mi) lo pueden hacer    --9---------5--
G--6---4---2---1-- de otra forma x ejemplo asi:   --9- o asi -4--
D--7---5---3---2------------------------------------9------------
A--7---5---3---2------------------------------------7------------
E--5---3---1---0-------------------------------------------------

Lo toparon en la noche
doce tipos con navaja, lo azotaron en un coche
hasta que se fue su alma
Nadie supo quienes fueron, de donde vienen, ni nada
todos dicen que no vieron a la banda enmascarada


::::::::::::::::::::::::::::::::::::::::::::::::::::::::::::::::::::::


.....luego..va de nuez......

'la fantasma del rana'  lo dicen 4 veces .........

--lyra--               --bajo--
    E     Bm             E          Bm
e---7-----7--         e------------------------|
B---9-----7--         B------------------------|
G---9-----7--         G------------------------|    2 Veces
D---9-----9--         D----------------1-4-1---|
A---7-----9--         A-------2------2---------|
E---7-----7--         E---0-4---4--------------|


despues dicen 'el fantasma de la rana' lento
con ritmo metalero guitarra y bajo

lyra                      bajo (solo puntean las notas jejeje)
   A   G   F   E           A   G   F   E
E-------------------     -------------------
B-------------------     -------------------
G-------------------     -------------------   2 veces.....
D--7---5---3---2----     -------------------
A--7---5---3---2----     -------------------
E--5---3---1---0----    E--5---3---1---0----

::::::::::::::::::::::::::::::::::::::::::::::::::::::::::::::::::::::


el intro de nuevo..y el ultimo verso.... (ya le habran agarrado la onda no?)

   A   G   F   E
E--5---3---1---0------------------------------------7---------4--
B--5---3---1---0-- este E (Mi) lo pueden hacer    --9---------5--
G--6---4---2---1-- de otra forma x ejemplo asi:   --9- o asi -4--
D--7---5---3---2------------------------------------9------------
A--7---5---3---2------------------------------------7------------
E--5---3---1---0-------------------------------------------------

   A        G        F        E         |
E---------------------------------------|
B---------------------------------------|
G---------------------------------------|
D---------------------------------------|
A---4-7-4----2-5-2----0-3-0-------2-----|
E--5--------3--------1--------0-4---4---|


Por eso anda el fantasma
tras los doce enmascarados, pa' llevarlos al infierno
por su pinche asesinato
Agua pasa por mi casa, cate de mi corazón
así termina la historia de la extraña aparición

luego....

'la fantasma del rana'  lo dicen 4 veces .........

--lyra--               --bajo--
    E     Bm             E          Bm
e---7-----7--         e------------------------|
B---9-----7--         B------------------------|
G---9-----7--         G------------------------|    2 Veces
D---9-----9--         D----------------1-4-1---|
A---7-----9--         A-------2------2---------|
E---7-----7--         E---0-4---4--------------|


despues dicen 'el fantasma de la rana' lento
con ritmo metalero guitarra y bajo

lyra                      bajo (solo puntean las notas jejeje)
   A   G   F   E           A   G   F   E
E-------------------     -------------------
B-------------------     -------------------
G-------------------     -------------------   2 veces.....
D--7---5---3---2----     -------------------
A--7---5---3---2----     -------------------
E--5---3---1---0----    E--5---3---1---0----

:::::::::::::::::::::::::::::::::::::::::::::::::::::::::::::::::::::

luego llega la parte con el riff metalero

   A   G   F   E           A   G   F   E
E-------------------     -------------------
B-------------------     -------------------
G-------------------     -------------------   X veces.....
D--7---5---3---2----     -------------------
A--7---5---3---2----     -------------------
E--5---3---1---0----    E--5---3---1---0----


luego la parte reggae.... ya saben cual....
luego cambia a ska.......y regresa al intro....

y al final dicen varias veces 'el fantasma' 'de la rana'
jugando con los intrumentos asi k esa parte es opcional y acaban en A
con este riff....


E--------------------------------------------------
B--------------------------------------------------
G----------2- sostienen en 'A' hasta k el  ----
D--9/7-5-4-2- amplificador haga su trabajo ----
A--7/5-3-2-0---------------------------------------
E--------------------------------------------------


eso es todo y porfavor suban rolas de calidad, ya k no todas las rolas de sekta estan bien sacadas....

SALUDOSA TODAS LA BANDAS de 'SKA' y 'REGGAE' EN YUCATAN...:
oxlahuntiku, radioswap, jam gorila, orden kalavera, reciclaje, francisca y la muerte, skasos recursos, I&I etc.
y a las k me faltaron..y a la rikita (ya esta muy kmada) jejejeje es broma......
SAKEN ROLAS DE LA SEKTA Y SI NECESITAN UNA GUITARRA ESTOY DISPUESTO....escalanteeuan@ jejeje
si tienen alguna duda, comentario, correccion o queja envien correos:..escalanteeuan@
Ahh y fomenten el SKA....y a las bandas.....metanse igual al 'Slam' no...jajajajaja

                       ***************Loko****************

   111   111   111   111   111   111   111   111   111   111   111   111   111
   111   111   111   111   111   111   111   111   111   111   111   111   111
        xxx                    _    111   111   111   111   111   111   111
  ___   $$$     ...    ___   _|_|_  111   111   111   111   111   111   111
 [*v*] (@_@)   [x_x]  [º_º]  [@_@]     111   111   111   111   111   111   111
 (( )) (| |)   /|.|\    (| |)     111   111   111   111   111   111   111
  /_\   |||     |!|    |¡|    |||   111   111   111   111   111   111   111
el     el      el      super  el    111   111   111   111   111   111   111
pichon rasta   briago  yuca   rudeboy  111   111   111   111   111   111   111
                                       111   111   111   111   111   111   111
111   111   111   111   111   111   111   111   111   111   111   111   111
111   111   111   111   111   111   111   111   111   111   111   111   111

Yucatan Antifacista, Antinacista y Antiracista.............
Suggest correction
Give kudos to tab author, rate the tab!
1 2 3 4 5
comments
print report bad tab
guest
Wanna post a correction for this tab? Suggest correction