Oops, an error
Loading. Please wait.

Goya Bass

64 views 3 this week
no commentswrite comment
1 2 3 4 5
3 more votes to show rating
add to favorites
×
Save as Personal and add changes to this tab that will be seen only by you. Learn more ›
launch autoscroll
font size
0
reset
guitar tuner
Autoscroll
slow
fast
+/-
esc
set tempo
stop
esta es la verdadera version de goya para bajo
y le voy a decir a mi primo que mande el de lira
por que el otro pendejo no mando el ritmo de ska
y aparte esta bien fuera de tonos

saludos rizo y yorch

afinacion standard (e,a,d,g)

intro

----------------------------------------------------
----------------------------------------------------
----------------------------------------------------
-5-5-6-5-5-6-5-5-6-5-5-3--5-5-6-5-5-6-5-5-6-5-5-3---

redoble bateria

--------------------------------------
---------------------------------6----
--------------------------------6-7/--
-5-6-3-5--5-6-3-5--5-6-3-5--5-6-------


parte alocada

----------------------------------------------------
-----------------------------------------------6----
----------------------------------------------6-7/--
-55-66-33-55--55-66-33-55--55-66-33-55--55-66-------

pinche salinas tenia que ser
me dejaste sin un centavo
y por eso te meto al tambo
eres una pinche lacra
traicionaste a la patria
goya ¡¡¡¡¡¡¡¡¡¡

parte ska
solo guitarra

--------------------------------------
---------------------------------6----
--------------------------------6-7/--
-5-6-3-5--5-6-3-5--5-6-3-5--5-6-------

ya llegue de nuevo
deme su dinero
ya llegue otra vez
besenme los pies
soy el presidente y ademas soy un ojete

parte alocada igual

outro

------------------------
------------------------
------------------------
-3-5-3-5-3-5/15/5-3-3-3-
Suggest correction
Give kudos to tab author, rate the tab!
1 2 3 4 5
comments
print report bad tab
guest
You may want to rate the tab now too:
select rating
Wanna post a correction for this tab? Suggest correction