Oops, an error
Loading. Please wait.

Insurgentes Tab

37 views 1 this week
no commentswrite comment
1 2 3 4 5
3 more votes to show rating
add to favorites
launch autoscroll
font size
0
reset
how to read this tab
guitar tuner
Autoscroll
slow
fast
+/-
esc
set tempo
stop
Help us to improve Ultimate-Guitar.com Take our survey!
×
Otra clasica que hace muchos años no oigo en las tocadas de la Sekta, asi que a 
quien le guste esta rola, ya puede tocarla.

Afinacion standard

Al principio es nada mas bateria y  entra la lira:
Pongale distorsion cabrona
e------------------------------------------------------
b------------------------------------------------------
g------------------------------------------------------
d---------55--44-----------55--44--77------------------
a-----77--33--22--66---77--33--22--55------------------
e-----55----------44---55------------------------------


Creo que la guitarra que se oye abajo  va asi, pero la neta no estoy
seguro, igual y esta mal.

e-----55555/12121212----
b-----55555/12121212----
g-----55555/12121212----


Despues sigue esto
'Emiliano Zpata al gobierno mata'
--------------------------------------------------------
--------------------------------------------------------
--------------------------------------------------------
--------------------------------------------------------
--0-3-2----0-3-2----0-3-2----- 8 veces -----------------
--------4--------4--------4-----------------------------

La guitarra ska sin disto.
Aqui hay que jugar mucho con la muñeca y con el unico cambio de La
a Sol#.Oigan el disco.

------5555555-4/555555555-4/5-4/55555------------
------5555555-4/555555555-4/5-4/55555------------
------6666666-5/666666666-5/6-5/66666------------
------7777777-6/777777777-6/7-6/77777------------
------7777777-6/777777777-6/7-6/77777------------
------5555555-4/555555555-4/5-4/55555------------

Despues hay una pate en la cancion donde dice  una voz distorsionada
'Entonces que?. estabas esperando...'

Ahi la guitarra toca La y La#.  Busquen el ritmo, esta facilisimo.
Para los que no sepan.

a-------7---8--
e-------5---6--
       LA   LA#

Despues sigue el acompañamiento para el solo de piano.
Aqui busquenle bien el ritmo y se oye muy chido.

--------------------------------------------------------
--------------------------------------------------------
-------------55--44----------------55--44--77-----------
---------77--55--44---66-------77--55--44--77-----------
---------77--33--22---66-------77--33--22--55-----------
---------55-----------44-------55-----------------------

Eso es todo
Chida cancion, chida mi transcripcion.
Califiquenla y suban canciones del Infierno.
Suggest correction
Give kudos to tab author, rate the tab!
1 2 3 4 5
comments
print report bad tab
guest
You may want to rate the tab now too:
select rating
Wanna post a correction for this tab? Suggest correction