Oops, an error
Loading. Please wait.

La Zona Del Terror Bass Tab

152 views 1 this week
no commentswrite comment
1 2 3 4 5
3 more votes to show rating
add to favorites
launch autoscroll
font size
0
reset
guitar tuner
×
Best way to learn
"La Zona Del Terror"
Autoscroll
slow
fast
+/-
esc
set tempo
stop
buano esta es primer tab la saque de un video que vi
y pues nada empezemaos

la rola empieza con esto

G---------
D---------
A--------- X16
E--1-1-4-3

luego sige la parte ska

G--------------
D--------------
A---8-8-8-8-7-8 X13
E----8-8-8-----

despues todos hacen silencio

y vuelve esto

G--------------
D--------------
A---8-8-8-8-7-8 X16
E----8-8-8-----

a qui suenan las trompetas
cuando hacen la pausa

G-----
D-----
A--5--
E-----

luego sige esto

G---------------------
D---------------------
A-8-8-8-8-7-4-4--6-6-7 X4
E--8-8-8-----4-4--6---

despues sige esto

G----------------------------------
D----------------------------------
A-8-7-6-5-8-7-6-5-3-4-3-4-3-4-5-6-8
E----------------------------------

y se repite esto (escuchen bien esta parte por que hay un silencio)

G---------
D---------
A--------- desde el minuto 1:50 hasta el 2:43
E--1-1-4-3

y se repite esto

G--------------
D--------------
A---8-8-8-8-7-8 X21
E----8-8-8-----

y se repite esto (ya sin el silencio de las trompetas)


G---------------------
D---------------------
A-8-8-8-8-7-4-4--6-6-7 X4
E--8-8-8-----4-4--6---

luego esto (tambien sin el silencio de las trompetas)

G----------------------------------
D----------------------------------
A-8-7-6-5-8-7-6-5-3-4-3-4-3-4-5-6-8
E----------------------------------

la rola esta facil solo escuchenla bien
ha y si alguien se la sabe en trompeta o trombon que me
pueda pasar como se toca a mi correo

taini_cucus@ o al facebook lioz ramirez
Suggest correction
Give kudos to tab author, rate the tab!
1 2 3 4 5
comments
print report bad tab
guest
You may want to rate the tab now too:
select rating
Wanna post a correction for this tab? Suggest correction