Oops, an error
Loading. Please wait.

Monstruos Bass Tab

9 views 1 this week
no commentswrite comment
1 2 3 4 5
3 more votes to show rating
add to favorites
launch autoscroll
font size
0
reset
guitar tuner
Autoscroll
slow
fast
+/-
esc
set tempo
stop
Help us to improve Ultimate-Guitar.com Take our survey!
×
que chingona banda
saludos wiwi, rizo, yorch, cotardo y chespi

afinacion standard

intro

G------------------------------------------
D------------------------------------------
A------------------------------------------
E-0-0-0-0-0-0-0-0-0-0-0-0-0/12-12-12-12-12-

riff 1

G------------------------------------------
D------------------------------------------
A-----------3-3-3-3------------------------
E-0-0-0-0-0---------3-3-3-3-2-2-2-2--------

riff 2

G------------------------------------------
D------------------------------------------
A------------------------------------------
E-0-0-0-0-0-0-1-1-0-0-0-0-0-0-1-1----------

riff 3
parte ska

G------------------------------------------
D-----------------------------------5------
A-----3---------3---------3-----3-6---6----
E-1-4---4---1-4---4---1-4---4--------------

se repite toda la estructura

facil no

dudas y comentarios a mi mail
Suggest correction
Give kudos to tab author, rate the tab!
1 2 3 4 5
comments
print report bad tab
guest
You may want to rate the tab now too:
select rating
Wanna post a correction for this tab? Suggest correction