Oops, an error
Loading. Please wait.

Monstruos Chords

37 views 1 this week
no commentswrite comment
1 2 3 4 5
3 more votes to show rating
add to favorites
launch autoscroll
font size
0
reset
transpose
0
reset
simplify chords
display chords
guitar tuner
Autoscroll
slow
fast
+/-
esc
set tempo
stop
Help us to improve Ultimate-Guitar.com Take our survey!
×
No esta dificil, solo que los cambios van casi por todo
el brazo de la guitarra.

intro
-------------------------------------
-------------------------------------
------9-----9-------9----------------
----9---9--9--9---9---9--------------
--7------7------7--------7-----------
-------------------------------------

E5, C5, G5, F#5

-------------------------------------
-------------------------------------
------9-----9-------9----------------
----9---9--9--9---9---9--------------
--7------7------7--------7-----------
-------------------------------------

E5, C5, G5, F#5

E5, F5

despues de todo este desman va con skank
Y casi todo desde octavas menos las quintas 

Em

Em     
Cada que me voy a acostar
        F#          Em
Me da miedo el despertar
Em
Es una debilidad
        F#          Em
Que me aterra sin cesar
 A#m              Bm
Siento que algo me detiene
 A#m              Bm
Y no me puedo levantar
 A#m              Bm
Solo pienso que es de noche
 A#m              Bm
Y que nunca va a terminar

-------------------------------------
-------------------------------------
------9-----9-------9----------------
----9---9--9--9---9---9--------------
--7------7------7--------7-----------
-------------------------------------

 E5         C5       G5      F#5
Son los mountros en mi almhuada(4x)
Suggest correction
Give kudos to tab author, rate the tab!
1 2 3 4 5
comments
print report bad tab
guest
You may want to rate the tab now too:
select rating
Wanna post a correction for this tab? Suggest correction