Oops, an error
Loading. Please wait.

Ser Fuertes Bass

58 views 1 this week
no commentswrite comment
1 2 3 4 5
3 more votes to show rating
add to favorites
launch autoscroll
font size
0
reset
guitar tuner
Autoscroll
slow
fast
+/-
esc
set tempo
stop
Como joden en mi mail que les ponga mas canciones de sekta core
ahi les va ser fuertes para bajo
espero que se la sepan y la estudien
esta bien chingona
afinacion standard

Sekta core
Ser fuertes

intro
G -----------------------------------------------
D -----------------------------------------------
A ---4---4---4---4-3-2----------3-----4---4------
E -1---1---1---1-------4-3--1-4---4-3---4---4-3--

Riff 1 (X16)
G ----------------------
D ----------------------
A -----3-----4---4------
E -1-4---4-3---4---4-3--

Puente (X12)
G --------------------
D --------------------
A -1-------4-3-1------
E ---------------4-3--

continuacion
G ----------------------
D ----------------------
A -----3-----4---4------
E -1-4---4-3---4---4-3--

Interload
G ---------------------------------------------------------
D ---------------------------------------------------------
A -1-------3-1-------3-3-3-3-3-1-------3-1-------4-3-1-----
E ---1-3-4-----1-3-4-------------1-3-4-----1-3-4-------4-3-

continuacion
G -------------------------------------------------
D -------------------------------------------------
A ---------3-------------------3------------3------
E -0-1-3-4---4--0-1-3-4--1-3-4---4-3--1-3-4---4-3--

continuación
G ---------------------------------------------------
D ---------------------------------------------------
A -----------------------3-----------3----4-3-1------
E -0-1-3-4-0-1-3-4-1-3-4---4-3-1-3-4---4-3------4-1--

Riff 1 
G --------------------
D --------------------
A -----3-----4---4----
E -1-4---4-3---4---3--
continuacion 
G -----------------------------------
D -----------------------------------
A -1--------3--1-------4-3-1---------
E ---1--3-4------1-3-4-------4-3--1--

Outro (X8)
G ----------------------
D ----------------------
A -----3-----4---4------
E -1-4---4-5---4---4-3?

G ----------------------------------------------------------
D ----------------------------------------------------------
A -1-------3?1--------3-3-3-3-3?1-------3?1-------4-3-3-----
E ---1-3-4-----1-3-4--------------1-3-4-----1-3-4-------4-1-

no hay pierde se las puse para que la siguieran paso por paso
pendejo el que no la saque
ahi le spongo mas a los bajeros cabrones que disfrutan de sekta core
saludos wiwi
Suggest correction
Give kudos to tab author, rate the tab!
1 2 3 4 5
comments
print report bad tab
guest
Wanna post a correction for this tab? Suggest correction