Oops, an error
Loading. Please wait.

Break Tab

version 1
version 1

Whole song

Interactive

24,136 views 39 this week
2 commentsread comments
1 2 3 4 5
excellent!
x 14
add to favorites
launch autoscroll
font size
0
reset
how to read this tab
guitar tuner
Tab Pro tools
  • play this tab
  • loop segment
  • change instrument
  • show fretboard
  • metronome
×
Best way to learn
"Break"
Autoscroll
slow
fast
+/-
esc
set tempo
stop
Contributor
Capo
7th fret
Hope this will help you guys out


--Capo 7th--

Verse ( 2x repeat )

e|----------------------------------------------------------------------------|
B|---7----------------7----7h8----10------------------------------------------|
G|---------7-----------------------------7--------------------7---------------|
D|--------------7-----------------------------7----------7---------7----------|
A|--10----------------10----------10---------------10-------------------------|
E|----------------------------------------------------------------------------|

e|----------------------------------------------------------------------------|
B|---7----------------7----7h8----8p7-----------------------------------------|
G|---------7-----------------------------7-----------------------7------------|
D|--------------7-----------------------------7-------------7-----------------|
A|--10----------------10-----------------------------10-----------------------|
E|----------------------------------------------------------------------------|

e|----------------------------------------------------------------------------|
B|--10--------------10--------------------------------------------------------|
G|--------7---------------7-----------------7---------------7-----------------|
D|------------7---------------7---------7--------------7---------7------------|
A|----------------------------------------------------------------------------|
E|--7----------------7--------------9-------------10--------------------------|

e|----------------------------------------------------------------------------|
B|--10--------------10--------------------------------------------------------|
G|--------7---------------7-----------------7---------------7-----------------|
D|------------7---------------7---------7--------------7---------7------------|
A|----------------------------------------------------------------------------|
E|--7----------------7--------------9-------------10--------------------------|


Chorus ( 2x repeat )

e|--7-------------------------------10----------------------------------------|
B|-------7-------------------7------------7--------------------7--------------|
G|------------7---------7----------------------7----------7---------7---------|
D|----------------------------------------------------------------------------|
A|--10-------------10---------------10--------------10------------------------|
E|----------------------------------------------------------------------------|

e|--10---------------9---------------7--------------7-------------7-----------|
B|------7---------------7---------------7--------------7-------------7--------|
G|---------7---------------7---------------7--------------7-------------------|
D|----------------------------------------------------------------------------|
A|--10--------------10---------------10------------10-------------10----------|
E|----------------------------------------------------------------------------|

e|----------------------------------------------------------------------------|
B|--10--------------10--------------------------------------------------------|
G|--------7---------------7-----------------7---------------7-----------------|
D|------------7---------------7---------7--------------7---------7------------|
A|----------------------------------------------------------------------------|
E|--7----------------7--------------9-------------10--------------------------|

e|----------------------------------------------------------------------------|
B|--10--------------10--------------------------------------------------------|
G|--------7---------------7-----------------7---------------7-----------------|
D|------------7---------------7---------7--------------7---------7------------|
A|----------------------------------------------------------------------------|
E|--7----------------7--------------9-------------10--------------------------|
End

e|--7-------------------------------10----------------------------------------|
B|-------7-------------------7------------7--------------------7--------------|
G|------------7---------7----------------------7----------7---------7---------|
D|----------------------------------------------------------------------------|
A|--10-------------10---------------10--------------10------------------------|
E|----------------------------------------------------------------------------|

e|--7-------------------------------10---------------9----------7-------------|
B|-------7-------------------7------------7----------------7------------------|
G|------------7---------7----------------------7-- ---------------------------|
D|----------------------------------------------------------------------------|
A|--10-------------10---------------10--------------10------------------------|
E|----------------------------------------------------------------------------|

e|--14------------------------------14------------------------14--------------|
B|--------7-----------------7-------------7-----------------------------------|
G|------------7---------7---------------------7---------7---------------------|
D|----------------------------------------------------------------------------|
A|--14-------------14---------------14-------------14---------14--------------|
E|----------------------------------------------------------------------------|

e|--12------------------------------12-----------------------7----------------|
B|--------7-----------------7-------------7-----------------------------------|
G|------------7---------7---------------------7---------7---------------------|
D|----------------------------------------------------------------------------|
A|--12-------------12---------------12-------------12-------------------------|
E|----------------------------------------------------------------------------|



e|--7-------------------------------10----------------------------------------|
B|-------7-------------------7------------7--------------------7--------------|
G|------------7---------7----------------------7----------7---------7---------|
D|----------------------------------------------------------------------------|
A|--10-------------10---------------10--------------10------------------------|
E|----------------------------------------------------------------------------|

e|--7-------------------------------10---------------9------------------------|
B|-------7-------------------7------------7---------------7----10-------------|
G|------------7---------7----------------------7-- ---------------------------|
D|----------------------------------------------------------------------------|
A|--10-------------10---------------10--------------10------------------------|
E|----------------------------------------------------------------------------|

(4x)
e|----------------------------------------------------------------------------|
B|--10--------------10---------------------------------------10---------------|
G|--------7---------------7-----------------7---------------------------------|
D|------------7---------------7---------7--------------7----------------------|
A|----------------------------------------------------------------------------|
E|--7----------------7--------------9-------------10--------------------------|
comments
print report bad tab
2 comments total.
0 reply
pcarissa wrote on November 30 2012, 11:10 pm

im really confused....how can you play a string on the 7th fret when the capo is on it....

+1 reply
Pitote wrote on August 12 2013, 06:45 am

Even with the capo, the fret still "playable". Just play it without pressing any fret.

I want to post or [tab]
guest
You may want to rate the tab now too:
select rating
Please do not post tabs as comments. Select "correction" instead!