Oops, an error
Loading. Please wait.

Raggamuffin Chords

version 1
version 1

Whole song

Interactive

94,776 views 618 this week
no commentswrite comment
1 2 3 4 5
excellent!
x 16
add to favorites
launch autoscroll
font size
0
reset
transpose
0
reset
- display chords -
guitar tuner
Tab Pro tools
  • play this tab
  • loop segment
  • change instrument
  • show fretboard
  • metronome
×
Best way to learn
"Raggamuffin"
Autoscroll
slow
fast
+/-
esc
set tempo
stop
Contributor
Here are the tabs/chords for the song "Raggamuffin" by Selah Sue

Tabs/Chords by Benjamin Borgeais

Enjoy!


Chords used in this song :

   Gm        Cm        Dm
E---3--|   E---3--|   E---5--|
B---3--|   B---4--|   B---6--|
G---3--|   G---5--|   G---7--|
D---5--|   D---5--|   D---7--|
A---5--|   A---3--|   A---5--|
E---3--|   E---X--|   E---X--|



No capo

Intro

     Gm    Gm        Cm   Cm
E-----3-----3---------3----3-|
B-----3-----3---------4----4-|
G-----3-----3---------5----5-|
D-----5-----5-------5-5----5-|
A---5-5-----5-----3---3--3-3-|
E-3---3---3-3---------X----X-|

     Gm    Gm        Cm Cm 
E-----3-----3---------3--3-|
B-----3-----3---------4--4-|
G-----3-----3---------5--5-|
D-----5-----5-------5-5--5-|
A---5-5-----5-----3---3--3-|
E-3---3---3-3---------X--X-|



1st verse

In New York they want me,and I'm gonna be there

     Gm    Gm        Cm   Cm
E-----3-----3---------3----3-|
B-----3-----3---------4----4-|
G-----3-----3---------5----5-|
D-----5-----5-------5-5----5-|
A---5-5-----5-----3---3--3-3-|
E-3---3---3-3---------X----X-|

Damn city's calling, and I'm gonna be there

     Gm    Gm        Cm   Cm
E-----3-----3---------3----3-|
B-----3-----3---------4----4-|
G-----3-----3---------5----5-|
D-----5-----5-------5-5----5-|
A---5-5-----5-----3---3--3-3-|
E-3---3---3-3---------X----X-|

In Paris they want me, and I'm gonna be there

     Gm    Gm        Cm   Cm
E-----3-----3---------3----3-|
B-----3-----3---------4----4-|
G-----3-----3---------5----5-|
D-----5-----5-------5-5----5-|
A---5-5-----5-----3---3--3-3-|
E-3---3---3-3---------X----X-|

spreading the vibe........all over

     Gm    Gm        Cm   Cm
E-----3-----3---------3----3-|
B-----3-----3---------4----4-|
G-----3-----3---------5----5-|
D-----5-----5---------5----5-|
A---5-5-----5-----3-3-3--3-3-|
E-3---3---3-3---------X----X-|


 Gm                 Cm                       Gm
All over, yeah uh, rasta lion calling them

 Gm                            Cm
Shilly tilly wally tilly tilly

 Cm                      Gm
Shilly shilly yeah uh

 Gm                            Cm  
Shilly tilly wally tilly tilly

 Cm                Gm
Uh yeah, uh yeah

 Gm          Cm
The vibe is so right



Chorus

 Gm                            Cm 
You never had it easy, I know

 Cm                   Dm
But I still remember you

 Dm                   Cm
And what we used to say so

 Gm                               Cm
This' my song for you, my friend

 Cm                   Dm
You can only see that I

 Dm                   Cm
Can hardly let things go oh oh yeah

 Gm                                 Cm
So listen to the sound of my voice

 Cm                          Dm
Your brothers sending momma love

 Dm               Cm
Is giving me no choice no no no

 Gm                                  Cm
So listen to the sound of the point, ha!

 Cm                     Dm
Raggamuffin is a freedomfighter

 Dm                Cm
He's handeling a choice and I know that



Bridge 1

 Gm
Dear raggamuffin is one of the band

 Cm
What you see is what you really need in the end

 Dm                                    Cm
What you ever gonna gonna do I dunno

 Gm
Dear raggamuffin shall not fall down

 Cm
Cause he has the wisdom of a not fool around

 Dm                                 Cm
What is a good sense under ya ground yeah



Chorus

 Gm                            Cm 
You never had it easy, I know

 Cm              Dm
I still remember you

 Dm                  Cm
And what we used to have so

 Gm                               Cm
This' my song for you, my friend

 Cm                   Dm
You can only see that I

 Dm              Cm
Would never forget anyways



Bridge 2

 Gm
Ohohoh yeah

 Cm         Dm      Cm
Ohohoh...yeah yeah

 Gm
Ohohoh yeah

 Cm         Dm      Cm
Ohohoh...yeah yeah



Bridge 1

 Gm
Dear raggamuffin is one of the band

 Cm
What you see is what you really need in the end

 Dm                                    Cm
What you ever gonna gonna do I dunno

 Gm
Dear raggamuffin shall not fall down

 Cm
Cause he has the wisdom of a not fool around

 Dm                                  Cm
What is a good sense under ya ground yeah



Outro

 Gm / Cm / Dm / Cm  
 
 Gm / Cm / Dm / Cm 

 Gm...
comments
print report bad tab
I want to post or [tab]
guest
You may want to rate the tab now too:
select rating
Please do not post tabs as comments. Select "correction" instead!