Oops, an error
Loading. Please wait.

Raggamuffin Tab

version 1
version 1

Whole song

Interactive

79,806 views 30 this week
no commentswrite comment
1 2 3 4 5
excellent!
x 8
add to favorites
launch autoscroll
font size
0
reset
how to read this tab
guitar tuner
Autoscroll
slow
fast
+/-
esc
set tempo
stop
Help us to improve Ultimate-Guitar.com Take our survey!
×
Contributor
Difficulty
KingMax 43
novice
Intro/Verse

In new York they want me...

E-----3-----3-3---------3----3-3-|
B-----3-----3-3---------4----4-4-|
G-----3-----3-3---------5----5-5-|
D-----5-----5-5-------5-5----5-5-|
A---5-5-----5-5-----3---3----3-3-|
E-3---3---3-3-3---------3--3-3-3-|

all over yeah uh, rushed and lying, calling there

E-3-3-3--3--3-3---3-3-3--3--3-3------|
B-3-3-3--3--3-3---4-4-4--4--4-4------|
G-3-3-3--3--3-3---5-5-5--5--5-5------|
D-5-5-5--5--5-5---5-5-5--5--5-5------|
A-5-5-5--5--5-5---3-3-3--3--3-3------|
E-3-3-3--5--5-5---3-3-3--3--3-3------|

You never had it easy, i know

E-----3-----3-3---------3----3--5-5-5-5-5-5-5-5-5-3-3-3-3-3-3-3-3-3-|
B-----3-----3-3---------4----4--6-6-6-6-6-6-6-6-6-4-4-4-4-4-4-4-4-4-|
G-----3-----3-3---------5----5--7-7-7-7-7-7-7-7-7-5-5-5-5-5-5-5-5-5-|
D-----5-----5-5-------5-5----5--7-7-7-7-7-7-7-7-7-5-5-5-5-5-5-5-5-5-|
A---5-5-----5-5-----3---3----3--5-5-5-5-5-5-5-5-5-3-3-3-3-3-3-3-3-3-|
E-3---3---3-3-3---------3--3-3--5-5-5-5-5-5-5-5-5-3-3-3-3-3-3-3-3-3-|

Dear raggamuffin is one of the band


E-3-3-3--3--3-3---3-3-3--3--3-3------|
B-3-3-3--3--3-3---4-4-4--4--4-4------|
G-3-3-3--3--3-3---5-5-5--5--5-5------|
D-5-5-5--5--5-5---5-5-5--5--5-5------|
A-5-5-5--5--5-5---3-3-3--3--3-3------|
E-3-3-3--5--5-5---3-3-3--3--3-3------|

You never had it easy I know


E-----3-----3-3---------3----3--5-5-5-5-5-5-5-5-5-3-3-3-3-3-3-3-3-3-|
B-----3-----3-3---------4----4--6-6-6-6-6-6-6-6-6-4-4-4-4-4-4-4-4-4-|
G-----3-----3-3---------5----5--7-7-7-7-7-7-7-7-7-5-5-5-5-5-5-5-5-5-|
D-----5-----5-5-------5-5----5--7-7-7-7-7-7-7-7-7-5-5-5-5-5-5-5-5-5-|
A---5-5-----5-5-----3---3----3--5-5-5-5-5-5-5-5-5-3-3-3-3-3-3-3-3-3-|
E-3---3---3-3-3---------3--3-3--5-5-5-5-5-5-5-5-5-3-3-3-3-3-3-3-3-3-|

Ohohoh, yeah..

E-3-3-3-3-3-3-3-3-3-3-3-3-3-3-3-3-5-5-5-5-5-5-5-5-3-3-3-3-3-3-3-3---|
B-3-3-3-3-3-3-3-3-4-4-4-4-4-4-4-4-6-6-6-6-6-6-6-6-4-4-4-4-4-4-4-4---|
G-3-3-3-3-3-3-3-3-5-5-5-5-5-5-5-5-7-7-7-7-7-7-7-7-5-5-5-5-5-5-5-5---|
D-5-5-5-5-5-5-5-5-5-5-5-5-5-5-5-5-7-7-7-7-7-7-7-7-5-5-5-5-5-5-5-5---|
A-5-5-5-5-5-5-5-5-3-3-3-3-3-3-3-3-5-5-5-5-5-5-5-5-3-3-3-3-3-3-3-3---|
E-3-3-3-3-3-3-3-3-3-3-3-3-3-3-3-3-5-5-5-5-5-5-5-5-3-3-3-3-3-3-3-3---|

Dear raggamuffin is one of the band

E-3-3-3--3--3-3---3-3-3--3--3-3------|
B-3-3-3--3--3-3---4-4-4--4--4-4------|
G-3-3-3--3--3-3---5-5-5--5--5-5------|
D-5-5-5--5--5-5---5-5-5--5--5-5------|
A-5-5-5--5--5-5---3-3-3--3--3-3------|
E-3-3-3--5--5-5---3-3-3--3--3-3------|

The End.
I think this is close, so if you see a mistake tell me.
comments
print report bad tab
I want to post or [tab]
guest
You may want to rate the tab now too:
select rating
Please do not post tabs as comments. Select "correction" instead!