Oops, an error
Loading. Please wait.

Raggamuffin Chords

version 2
version 2

Whole song

Interactive

41,784 views 81 this week
no commentswrite comment
1 2 3 4 5
x 5
add to favorites
launch autoscroll
font size
0
reset
transpose
0
reset
display chords
guitar tuner
Autoscroll
slow
fast
+/-
esc
set tempo
stop
Help us to improve Ultimate-Guitar.com Take our survey!
×
Author
Capo
3rd fret
Here are the tabs/chords for the song "Raggamuffin" by Selah Sue
 
CAPO ON 3RD FRET !

Chords used in this song (according to capo 3rd) :

    Em        Am        Bm
e|------   E------   E---2--|
B|------   B---1--   B---3--|
G|------   G---2--   G---4--|
D|---2--   D---2--   D---4--|
A|---2--   A------   A---2--|
E|------   E---X--   E---X--|
 
[Intro] 
      Em    Em        Am   Am
e|-----0-----0---------0----0-|
B|-----0-----0---------1----1-|
G|-----0-----0---------2----2-|
D|-----2-----2-------2-2----2-|
A|---2-2-----2-----0---0--0-0-|
E|-0---0---0-0---------X----X-|

      Em    Em        Am Am
e|-----0-----0---------0--0-|
B|-----0-----0---------1--1-|
G|-----0-----0---------2--2-|
D|-----2-----2-------2-2--2-|
A|---2-2-----2-----0---0--0-|
E|-0---0---0-0---------X--X-|

[Verse 1] 
In New York they want me,and I'm gonna be there

      Em    Em        Am   Am
e|-----0-----0---------0----0-|
B|-----0-----0---------1----1-|
G|-----0-----0---------2----2-|
D|-----2-----2-------2-2----2-|
A|---2-2-----2-----0---0--0-0-|
E|-0---0---0-0---------X----X-|

Damn city's calling, and I'm gonna be there

      Em    Em        Am   Am
e|-----0-----0---------0----0-|
B|-----0-----0---------1----1-|
G|-----0-----0---------2----2-|
D|-----2-----2-------2-2----2-|
A|---2-2-----2-----0---0--0-0-|
E|-0---0---0-0---------X----X-|

In Paris they want me, and I'm gonna be there

      Em    Em        Am   Am
e|-----0-----0---------0----0-|
B|-----0-----0---------1----1-|
G|-----0-----0---------2----2-|
D|-----2-----2-------2-2----2-|
A|---2-2-----2-----0---0--0-0-|
E|-0---0---0-0---------X----X-|

spreading the vibe........all over

      Em    Em        Am   Am
e|-----0-----0---------0----0-|
B|-----0-----0---------1----1-|
G|-----0-----0---------2----2-|
D|-----2-----2---------2----2-|
A|---2-2-----2-----0-0-0--0-0-|
E|-0---0---0-0---------X----X-|


 Em                 Am                       Em
All over, yeah uh, rasta lion calling them
 Em                            Am
Shilly tilly wally tilly tilly
 Am                      Em
Shilly shilly yeah uh
 Em                            Am
Shilly tilly wally tilly tilly
 Am                Em
Uh yeah, uh yeah
 Em          Am
The vibe is so right

[Chorus]
 Em                            Am
You never had it easy, I know
 Am                   Bm
But I still remember you
 Bm                   Am
And what we used to say so
 Em                               Am
This' my song for you, my friend
 Am                   Bm
You can only see that I
 Bm                   Am
Can hardly let things go oh oh yeah
 Em                                 Am
So listen to the sound of my voice
 Am                          Bm
Your brothers sending momma love
 Bm               Am
Is giving me no choice no no no
 Em                                  Am
So listen to the sound of the point, ha!
 Am                     Bm
Raggamuffin is a freedomfighter
 Bm                Am
He's handeling a choice and I know that

[Bridge 1]
 Em
Dear raggamuffin is one of the band
 Am
What you see is what you really need in the end
 Bm                                    Am
What you ever gonna gonna do I dunno
 Em
Dear raggamuffin shall not fall down
 Am
Cause he has the wisdom of a not fool around
 Bm                                 Am
What is a good sense under ya ground yeah

[Chorus]
 Em                            Am
You never had it easy, I know
 Am              Bm
I still remember you
 Bm                  Am
And what we used to have so
 Em                               Am
This' my song for you, my friend
 Am                   Bm
You can only see that I
 Bm              Am
Would never forget anyways

[Bridge 2]
 Em
Ohohoh yeah
 Am         Bm      Am
Ohohoh...yeah yeah
 Em
Ohohoh yeah
 Am         Bm      Am
Ohohoh...yeah yeah

[Bridge 1]
 Em
Dear raggamuffin is one of the band
 Am
What you see is what you really need in the end
 Bm                                    Am
What you ever gonna gonna do I dunno
 Em
Dear raggamuffin shall not fall down
 Am
Cause he has the wisdom of a not fool around
 Bm                                  Am
What is a good sense under ya ground yeah

[Outro]
 Em / Am / Bm / Am
 Em / Am / Bm / Am
 Em... 
Suggest correction
comments
print report bad tab
guest
You may want to rate the tab now too:
select rating
Wanna post a correction for this tab? Suggest correction