Oops, an error
Loading. Please wait.

This World Bass Tab

version 1
version 1

Intro

Interactive

29,048 views 51 this week
1 commentread comment
1 2 3 4 5
accurate
x 6
add to favorites
launch autoscroll
font size
0
reset
guitar tuner
Autoscroll
slow
fast
+/-
esc
set tempo
stop
Help us to improve Ultimate-Guitar.com Take our survey!
×
Author
Difficulty
novice
Such a great bass part. For now it's just the Intro, but I'll add the rest later. So 
here it goes:

-----------------------------------------------------------------------------|
------------1-1-1-----------333--------3-------------1-1-1-----------3-------|
-------------------3-3-3-3-----------3----------------------3-3-3-3-----3----|
-3-3-3-3-3-----------------------1-1--------3-3-3-3------------------------1-|

---------------------------------------------------------------------------------|
------------1-1-1-----------333--------3-------------1-1-1---------------3/5\3---|
-------------------3-3-3-3-----------3----------------------3-3-3-3----3---------|
-3-3-3-3-3-----------------------1-1--------3-3-3-3------------------1---------1-|
Suggest correction
comments
print report bad tab
1 comment total.
0 reply
blablablabanaan 12 wrote on October 22 2014, 01:52 pm

Hey, when are you gonna add it :)

guest
You may want to rate the tab now too:
select rating
Wanna post a correction for this tab? Suggest correction