Oops, an error
Loading. Please wait.

Como La Flor Tab

7,784 views 27 this week
no commentswrite comment
1 2 3 4 5
please rate
add to favorites
launch autoscroll
font size
0
reset
how to read this tab
guitar tuner
Tab Pro tools
  • play this tab
  • loop segment
  • change instrument
  • show fretboard
  • metronome
Autoscroll
slow
fast
+/-
esc
set tempo
stop
Contributor
Difficulty
intermediate
-Como la flor Selena TAB-
Transcripciòn para guitarra clàsica / instrumental
Tab By Beato_Pex
SELENA FOREVER !

e ----------8-10-8--------------8-10-8------------------------------------------3-3-5---|
B *----------------11------------------11----------10-11-10-8-------10-11-10-8--------6-|
G -10-10-10------------10-10-10-----------10-10-10------------7-7-7---------------------|
D *-------------------------------------------------------------------------------------|
A --------------------------------------------------------------------------------------|
E --------------------------------------------------------------------------------------|

e -----1--------------------------1---------------------|
B -4-3-1-------1-3-1----------4-3-1-------1-3-1---------|
G -3---2---2-3-------3======--3---2---2-3-------3======-|
D -5---3----------------------5---3-------------3======-|
A -------------0-1-----1-0----------------0-1---5======-|
E ---------1-3-------------3----------1-3---------------|

e ---1---3-3-6-6-5-5---5-8-13/15-13-13------1-1------------------1-3-1-|
B ---3---4-4-------6-6----------------------3---3-3-4-3-3-1-1--4-------|
G ---3-3-3-3-------5------------------------3---3---5-3-----2----------|
D -3---3--------------------------------3-3-----------3-----3----------|
A -----------3---------------------------------------------------------|
E -1-------------1----------------------1------------------------------|

e ---1---3-3-6-6-5-5------1-1---------------|
B ---3---4-4-------6------3---3-3-4-3-3-1-1-|
G ---3-3-3-3-------5------3---3---5-3-----2-|
D -3---3--------------3-3-----------3-----3-|
A -----------3------------------------------|
E -1-------------1----1---------------------|

e -1-1-1-3--1-1-1-3-3-6-5--3-6-5-5-5-3-3-1-6---3-|
B -3-3---4--3-3-3-4-----6--4---6---------3-6---3-|
G -------3--------3-----5--3---5-----3---3-------|
D -----------------------------------------------|
A -1---1-------------------------------------0---|
E -----------------------------------------6---3-|

e ---1-5-5-3---------------3-3-1-1====-----3-1-5-----------6-5-3===-|
B -3----------3-3-3-4--4-4-----1-----------4---6-----4-4-3----------|
G -3---------------------------2-----------3---5-5-5-5---3----------|
D ------------------1--1---2-----------3-3---------------3----------|
A -----1-0----------------------------------------------------------|
E ---------3----3-1------------1------------------------------------|

e -----3-1-5--------------|
B -----4---6-----4-4-3----|
G -----3---5-5-5-5---3----|
D -3-3---------------3----|
A ------------------------|
E ------------------------|

e ---------------------3-1-5-------------------|
B -3---1-4-3-------1----------------1-3-1------|
G ---3-------3-0-2---3----------2-3-------3----|
D ---------------------1===3-------------------|
A -1========------------------------------1===-|
E -----------3========--------1==========------|
comments
We did not receive enough feedback on this tab! Please rate:
print report bad tab
1 2 3 4 5
I want to post or [tab]
guest
You may want to rate the tab now too:
select rating
Please do not post tabs as comments. Select "correction" instead!