Oops, an error
Loading. Please wait.

Bad Liar bass

version 2
version 2

Whole song

  • In the same key as the original track, the simplest way to play.
277 views 45 this week
no commentswrite comment
1 2 3 4 5
1 last vote to show rating
add to favorites
×
Save as Personal and add changes to this tab that will be seen only by you. Learn more ›
×
You can save this tab as Personal to edit and correct it or add notes. All changes will be seen only by you. Learn more »
launch autoscroll
font size
0
reset
guitar tuner
edit
Autoscroll
slow
fast
+/-
esc
set tempo
stop
About this tab version
In the same key as the original track, the simplest way to play. Was this info helpful? Yes No
[Intro]
G|-------------------------------|
D|-------------------------------|
A|-------------------------------|
E|--4--4--4--4--4--4--4--0--2----| (x2)

[Verse]
'I was walking down the street the other day...'
G|-------------------------------|
D|-------------------------------|
A|-------------------------------|
E|--4--4--4--4--4--4--4--0--2----| (x2)

'Tryna play it coy, tryna make it disappear...'
G|-------------------------------|
D|-------------------------------|
A|--4--4--4--4--4--4--4----2-----|
E|-----------------------2-------| (x2)

'In my room there's a king size space...'
G|-------------------------------|
D|-------------------------------|
A|-------------------------------|
E|--4--4--4--4--4--4--4--0--2----| (x2)

'Ah, ah'
G|-------------------------------|
D|-------------------------------|
A|--4--4--4--4--4--4--4----2-----|
E|-----------------------2-------| (x2)

[Pre-Chorus]
'Ooh you're taking up a fraction of my mind...'
G|-------------------------------|
D|-------------------------------|
A|-------------------------------|
E|--4--4--4--4--4--4--4--0--2----| (x2)

'Ooh every time I watch you serpentine...'

G|-------------------------------|
D|-------------------------------|
A|--4--4--4--4--4--4--4----2-----|
E|-----------------------2-------|

G|-------------------------------|
D|-------------------------------|
A|-4--4--------------------------|
E|-------------------------------|

[Chorus]
'Oh I'm tryin', I'm tryin', I'm tryin'...'
G|-------------------------------|
D|-------------------------------|
A|-------------------------------|
E|--4--4--4--4--4--4--4--0--2----| (x2)


G|-------------------------------|
D|-------------------------------|
A|--4--4--4--4--4--4--4----2-----|
E|-----------------------2-------| (x2)

            
            
Suggest correction
Creating personal tab
Creating personal tab
You can edit any tab online and save it as your Personal.

You can edit, replace or remove any tab part or add personal notes – all changes will be seen only by you.

Personal tabs can be accessed anytime from any device, even offline.
Learn more »
Give kudos to tab author, rate the tab!
1 2 3 4 5
comments
print report bad tab
guest
You may want to rate the tab now too:
select rating
Wanna post a correction for this tab? Suggest correction