Oops, an error
Loading. Please wait.

Stop And Erase Tab

version 1
version 1

Whole song

Interactive

6,487 views 1 this week
no commentswrite comment
1 2 3 4 5
excellent!
x 3
add to favorites
launch autoscroll
font size
0
reset
how to read this tab
guitar tuner
Autoscroll
slow
fast
+/-
esc
set tempo
stop
Help us to improve Ultimate-Guitar.com Take our survey!
×
Author
Difficulty
novice
Selena Gomez & The Scene - Stop & Erase
---------------------------------------



### INTRO ### 00:00 ###
e|----------------------|-------------------------------|    |-----------------------|
B|----------------------|-------------------------------|    |-----------------------|
G|----------------------|-------------------------------| 4x |----------666-9999999--|
D|--666-77777-99999999--|--666-777-99-1111111111111111--|    |--777-999--------------|
A|----------------------|-------------------------------|    |-----------------------|
E|----------------------|-------------[11-not-1]--------|    |-----------------------|


### CHORUS ### 00:28 ###
e|---------------------------------------|----------------------------------------|
B|---------------------------------------|----------------------------------------|
G|--77777777----------99999999-----------|--77777777-----------99999999-----------|
D|--77777777-77777777-99999999-44444444--|--77777777-77777777--99999999-4444-444--|
A|--55555555-77777777-77777777-44444444--|--55555555-77777777--77777777-4444-444--|
E|-----------55555555----------22222222--|-----------55555555-----------2222-222--|

e|---------------------------------------|----------------------------------------|
B|---------------------------------------|----------------------------------------|
G|----7-7777----------99999999-----------|--77777777-----------99999999-99999999--|
D|----7-7777-77777777-99999999-44444444--|--77777777-77777777--99999999-99999999--|
A|----5-5555-77777777-77777777-44444444--|--55555555-77777777--77777777-77777777--|
E|-----------55555555----------22222222--|-----------55555555---------------------|



### INTRO ### 00:52 ###

### CHORUS ### 01:18 ###



### BRIDGE ### 01:42 ###
e|---------------------------[all-palm-muted]--|
B|---------------------------------------------|
G|--4-------------------------9-------7--------|
D|--4-(16x)--4--------7-------9-(9x)--7-(16x)--|
A|--2--------4-(16x)--7-(7x)--7-------5--------|
E|-----------2--------5------------------------|


### PRE-CHORUS ### 01:54 ###
e|---------------------------------------|
B|---------------------------------------|
G|--77777777-----------------------------|
D|--77777777-77777777-22222222-44444444--|
A|--55555555-77777777-22222222-44444444--|
E|-----------55555555-00000000-22222222--|



### CHORUS ### 02:00 ### (without first segment)

### CHORUS ### 02:18 ###

### INTRO ### 02:41 ### (fade out)
Suggest correction
What's this?
You can suggest a correction to this tab. Community and Mods will review your correction and vote to approve or reject it.
comments
We did not receive enough feedback on this tab! Please rate:
print report bad tab
1 2 3 4 5
guest
You may want to rate the tab now too:
select rating
Please do not post tabs as comments. Select "correction" instead!