Oops, an error
Loading. Please wait.

Tell Me Something I Dont Know Tab

version 1
version 1

Whole song

Interactive

14,236 views 1 this week
2 commentsread comments
1 2 3 4 5
x 4
add to favorites
launch autoscroll
font size
0
reset
how to read this tab
guitar tuner
×
Best way to learn
"Tell Me Something I Dont Know"
Autoscroll
slow
fast
+/-
esc
set tempo
stop
Author
Difficulty
novice
Selena Gomez - Tell Me Something I Don't Know
---------------------------------------------

A nice song which is very easy to play because it's the same thing throughout
the whole song and these are the three parts it is composed of. I'm not sure
about that strumming pattern but I think it is something like that.


### VERSE ### (3x)
e|--------------|    |----------|
B|--------------|    |----------|
G|--------------| 4x |--3--5----|
D|--5----5------|    |--3--5----|
A|--5----5------|    |--1--3----|
E|--3----3------|    |----------|


### PRE-CHORUS ###
e|------------|------------|------------|------------|
B|------------|------------|------------|------------|
G|------------|--33333333--|--88888888--|--5---------|
D|--55555555--|--33333333--|--88888888--|--5---------|
A|--55555555--|--11111111--|--66666666--|--3---------|
E|--33333333--|------------|------------|--------\3--|
    ........     ........     ........


### CHORUS ###
e|------------|------------|------------|------------|
B|------------|------------|------------|------------|
G|------------|----3--3-3--|--8-8--887--|----5--5-5--|
D|----5--5-5--|----3--3-3--|--8-8--887--|----5--5-5--|
A|----5--5-5--|--11111111--|--6-6-6665--|--33333333--|
E|--33333333--|------------|------------|------------|
    .. .. .      .. .. .          .        .. .. .
Suggest correction
comments
print report bad tab
2 comments total.
0 reply
jdiienno 50 Nov 30, 2008 06:52 PM

selena is SO hot

0 reply
nathanielaugust 21 Jul 12, 2010 10:02 AM

This is true. very

guest
You may want to rate the tab now too:
select rating
Wanna post a correction for this tab? Suggest correction