Oops, an error
Loading. Please wait.

Me Konforme Bass Tab

13 views 1 this week
no commentswrite comment
1 2 3 4 5
3 more votes to show rating
add to favorites
launch autoscroll
font size
0
reset
guitar tuner
Autoscroll
slow
fast
+/-
esc
set tempo
stop
Help us to improve Ultimate-Guitar.com Take our survey!
×
versos 1 y 2
G|---------------------
D|---------------------
A|-5-5-5-5-5-----------
E|-----------3-3-3-3-3- [x6],[x4]

Verso 3
G|---------------------
D|---------------------
A|-3-3-3-3-3-----------
E|-----------3-3-3-3-3- [x2]

G|-------------------------------
D|-------------------------------
A|-3-3-3-3-3---------------------
E|-----------3-3-3-3-3-1-1-1-1-1- [x2]

Koros
G|-------------------
D|-3/5-5-5-5-3-3-1-1-
A|-------------------
E|------------------- [x4]

Y es todo...............
Suggest correction
Give kudos to tab author, rate the tab!
1 2 3 4 5
comments
print report bad tab
guest
You may want to rate the tab now too:
select rating
Wanna post a correction for this tab? Suggest correction