Oops, an error
Loading. Please wait.

No Bass

38 views 1 this week
no commentswrite comment
1 2 3 4 5
3 more votes to show rating
add to favorites
×
Save as Personal and add changes to this tab that will be seen only by you. Learn more ›
×
You can save this tab as Personal to edit and correct it or add notes. All changes will be seen only by you. Learn more »
save as personal
new!
launch autoscroll
font size
0
reset
guitar tuner
Autoscroll
slow
fast
+/-
esc
set tempo
stop
Intro y Estrofas:

G/-----------------------------------------------------
D/-----------------------------------------------------
A/-3-3-3-3-3-3-----------------------------------------
E/-------------3-3-3-3-3-3-1-1-1-1-1-1-0-0-0-0-0-0-0-0-

 Interlude:

G/--------------------------------------------------------
D/------------------------------------------2-3-5-3-2-----
A/--------------5--5-5--5-5-5-------------3-----------3-5-
E/-3--3-3--3-3-3-------------5--5-5--5-5-5----------------

G/------------------------------------------
D/------------------------------------------
A/--------------5--5-5--5-5-5-------------0-
E/-3--3-3--3-3-3-------------5--5-5--5-5-5--

 KoRo 1:

G/--------------------------------------------------------
D/------------------------------------------2-3-5-3-2-----
A/--------------5--5-5--5-5-5-------------3-----------3-5-
E/-3--3-3--3-3-3-------------5--5-5--5-5-5----------------

G/--------------------------------------------------------
D/----------------------------------------------2-3-2-0---
A/--------------5--5-5--5-5-5-------------0-0-0---------1-
E/-3--3-3--3-3-3-------------5--5-5--5-5-5----------------

 KoRo 2:

G/--------------------------------------------------------
D/------------------------------------------2-3-5-3-2-----
A/--------------5--5-5--5-5-5-------------3-----------3-5-
E/-3--3-3--3-3-3-------------5--5-5--5-5-5----------------

G/------------------------------------------------
D/------------------------------------------------
A/-------------5--5-5--5-5-5--------------2-------
E/3--3-3--3-3-3-------------5--5-5--5-5-5---3-2-0-

eSTA bANDA EStA DE MODA EN PeRu
Suggest correction
Give kudos to tab author, rate the tab!
1 2 3 4 5
comments
print report bad tab
guest
Wanna post a correction for this tab? Suggest correction