Oops, an error
Loading. Please wait.

Mensaje Concentrado Bass Tab

20 views 6 this week
no commentswrite comment
1 2 3 4 5
3 more votes to show rating
add to favorites
launch autoscroll
font size
0
reset
guitar tuner
×
Best way to learn
"Mensaje Concentrado"
Autoscroll
slow
fast
+/-
esc
set tempo
stop
Aqui esta la parte de bajo de 'Mensaje Concentrado'
En la version original se toca con un bajo de 5 cuerdas,
pero yo pondre un tab opcional para bajo de 4 cuerdas.

h- es un hammer-on

Versos

   (5 cuerdas)
G--------------------------------|
D--------------------------------|
A-------------6-4-2-4------------|
E-4-2-4---0-0-----------4-2-4-5--|
B-------0-------------4----------|

    (4 cuerdas)
G--------------------------------|
D-------2-------------6----------|
A-------------6-4-2-4------------|
E-4-2-4---0-0-----------4-2-4-5--|

Coro

    (5 cuerdas)
G-------------------------------|
D-------------------------------|
A--------4h6-6------------------|
E-4-2-4--------7-4-2-4---2------|
B----------------------4---4----|

    (4 cuerdas)
G-------------------------------|
D------------------------4------|
A--------4h6-6---------6---6----|
E-4-2-4--------7-4-2-4----------|

Un bassline muy facil de apreder pero con mucho groove.
Dios les Bendiga (freekazoid8489@
Suggest correction
Give kudos to tab author, rate the tab!
1 2 3 4 5
comments
print report bad tab
guest
You may want to rate the tab now too:
select rating
Wanna post a correction for this tab? Suggest correction