Oops, an error
Loading. Please wait.

Mensaje Concentrado Tab

29 views 1 this week
no commentswrite comment
1 2 3 4 5
3 more votes to show rating
add to favorites
launch autoscroll
font size
0
reset
how to read this tab
guitar tuner
×
Best way to learn
"Mensaje Concentrado"
Autoscroll
slow
fast
+/-
esc
set tempo
stop
Este es el motivo que que se toca durante los versos:

Aqui Hector usa bastante Chorus con Delay y Reverb (con una
Fender Strat y un ampli Roland JC120 suena identico)

          *[Abmin]
e -------------------------------------------
B --/9-7--4-------5/7-5--4/6----4(5)7----/9--
G --/8-6---4------4/6-4--3/5-------------/8--
D -----------6-------------------------------
A -------------------------------------------
E -------------------------------------------

* El [Abmin] aveces lo arpejea o aveces lo hace "strum"
  (este es el acorde)

e -------
B ---4---
G ---4---
D ---6---
A -------
E -------


Y el Coro va asi:
Aqui Hector usa Delay y Reverb con Distorcion

e --------------------------------------------------------------
B --------------------------------------------------------------
G --------------------------------------------------------------
D ---------------------------4--------------------------4-4/6---
A ---------4(4)-2---------4/6-6--------4(4)-2--------4/6-6------
E --4--2-4---------4--2-4------2/4-2-4--------4--2-4------------


Puedes estar seguro(a) de que esta transcripcion es 100% correcta
pues conosco a Hector personalmente y el me la paso!!
Suggest correction
Give kudos to tab author, rate the tab!
1 2 3 4 5
comments
print report bad tab
guest
You may want to rate the tab now too:
select rating
Wanna post a correction for this tab? Suggest correction