Oops, an error
Loading. Please wait.

Closing Time Bass Tab

version 2
version 2

Whole song

14,321 views 51 this week
1 commentread comment
1 2 3 4 5
x 12
add to favorites
launch autoscroll
font size
0
reset
guitar tuner
Autoscroll
slow
fast
+/-
esc
set tempo
stop
Help us to improve Ultimate-Guitar.com Take our survey!
×
Note's:
  The whole song is basicly G/D/A/C, there really is no bass
during piano solo but arranged the piano and modified the
part after the solo to give a little variation to the song.
A beginner should be able to learn this song in about 10 to
15 min's the only thing that would give a beginner any hassle
is the piano solo part. All parts are there now put it together
it really is and easy song.


No bass till 1:00 into the song
  Verse/Chorus
G|---------------------------------| this is the proper way
D|---------------------------------| to play the song the
A|---------5-5-5-5---------3-3-3-3-| other's are modified way's
E|-3-3-3-3---------5-5-5-5---------|
                (or)
G|---------------------------------|
D|---------------------------------|
A|---------5-5-5-5-0-0-0-0-3-3-3-3-|
E|-3-3-3-3-------------------------|
                (or)
G|-------------------------------------------------|
D|-------------12-12-12-12-------------10-10-10-10-|
A|-10-10-10-10-------------12-12-12-12-------------|
E|-------------------------------------------------|

Piano Solo(Arranged for bass)
G|----------7-8-7--------------------7-8-7-----------|
D|-8---8-10-------10-8----8-8---8-10-------10-8----8-|
A|---------------------10-----------------------10---|
E|---------------------------------------------------|


G|----------7-8-7------------------7-8-7---------|
D|-8---8-10-------10-8----8---8-10-------10-8----|
A|---------------------10---------------------10-|
E|-----------------------------------------------|

  This is done after the piano solo
G|---------------------------------------------------------------------|
D|---------------------------------------------------------------------|
A|---------5-5-5-5---------33/5/7/10---------5-5-5-5---------33/5/7/14-|
E|-3-3-3-3---------5-5-5-5-----------3-3-3-3---------5-5-5-5-----------|

G|---------------------------------------------------------------------|
D|---------------------------------------------------------------------|
A|---------5-5-5-5---------33/5/7/10---------5-5-5-5---------33/5/7/14-|
E|-3-3-3-3---------5-5-5-5-----------3-3-3-3---------5-5-5-5-----------|
Suggest correction
comments
print report bad tab
1 comment total.
0 reply
kevinmckevinjr 10 Feb 14, 2016 03:13 PM

playing octaves of these sounds nice if you're playing by yourself

guest
You may want to rate the tab now too:
select rating
Wanna post a correction for this tab? Suggest correction