Oops, an error
Loading. Please wait.

Closing Time Tab

version 4
167,536 views 207 this week
3 commentsread comments
1 2 3 4 5
accurate
x 10
add to favorites
launch autoscroll
font size
0
reset
how to read this tab
guitar tuner
Tab Pro tools
  • play this tab
  • loop segment
  • change instrument
  • show fretboard
  • metronome
×
Best way to learn
"Closing Time"
Autoscroll
slow
fast
+/-
esc
set tempo
stop
Contributor
Song : Closing Time
Band : Semisonic
Tabbed By : Diamond Jerry (Raptureboy182@yahoo.com)
------------------------------------------------------------------------------

(INTRO)

 G - D - Am - C (3x)   
 (Riff on 2nd times and along the verse)


 (Riff)
 e---7---7---10---7---7---7---8---7----|
 B----8---8----8---8---8---8---8---8---|
 G-------------------------------------|
 D-------------------------------------|
 A-------------------------------------|
 E-------------------------------------|


(VERSE1)
 
 G - D - Am - C (8x)

 Closing time, open all the doors and let you out into the world
 Closing time, turn all of the lights on over every boy and every girl
 Closing time, one last call for alcohol so finish your whiskey or beer
 Closing time, you don't have to go home but you can stay here


(CHORUS)

 G* - D* - Am* - C* (4x)

   I know who I want to take me home
   I know who I want to take me home
   I know who I want to take me home
   Take me home....

(VERSE2)

 G - D - Am - C (8x)

 Closing time, time for you to go out to the places you will be from
 Closing time, this room won't be open till your brothers or your sisters come
 So gather up your jackets move it to the exit
 I hope you had found a friend
 Closing time, every new beginning from comes some other beginning's end.. yeah


(Repeat CHORUS)

(BRIDGE)

 Bb - G# - Eb - C* (3x)
 G - D - Am - C (Riff) (2x)


(Solo)
 
  G* - D* - Am* - C* (4x)

 e----------------------------------|
 B----------------------------------|
 G----------------------------------| repeat 2x then
 D----------2--5b-----------5--9b---|
 A---3--5-------------7--9----------|
 E----------------------------------|

 e-------------|
 B-------------|
 G-------------|
 D---------2---|
 A---3--5------|
 E-------------|

(VERSE3)
 
 G - D - Am - C,  G - D - Am...

Closing time, time for you to go out to the places you will be from

(Repeat CHORUS 2x) (Solo on 2nd Chorus)
(Repeat SOLO)


(OUTRO) with riff

 G - D - Am - C (2x)

Closing time,every new beginning comes from some other beginning's end




(Chord)

     G   D   Am  C     G*  D* Am*  C*
 e---3---2---x---x----------------------|
 B---3---3---1---1----------------------|
 G---0---2---2---0---------7-------5----|
 D---0---0---2---2-----5---7---7---5----|
 A---2---0---0---3-----5---5---7---3----|
 E---3---x---x---x-----3-------5--------|

----------------------------------------------------------------------------------
Any comments or corrections,just mail me to Raptureboy182@yahoo.com/ICQ #115343571
comments
print report bad tab
3 comments total.
+1 reply
strat16 wrote on October 18 2005, 03:20 pm

Best one here

0 reply
Corraiv wrote on April 25 2006, 08:22 pm

good
but it should be a 5 instead of a 7 on the second to last note
e----------------------------------|
B----------------------------------|
G----------------------------------| repeat 2x then
D----------2--5b-----------5--9b---|
A---3--5-------------7--9----------|
E----------------------------------|

0 reply
dav3011 wrote on July 12 2006, 03:33 pm

this is a mint song and i think the chords are right but i havent attempted the notes yet

I want to post or [tab]
guest
You may want to rate the tab now too:
select rating
Please do not post tabs as comments. Select "correction" instead!