Oops, an error
Loading. Please wait.

Closing Time Tab

version 6
37,363 views 12 this week
3 commentsread comments
1 2 3 4 5
excellent!
x 17
add to favorites
launch autoscroll
font size
0
reset
how to read this tab
guitar tuner
Autoscroll
slow
fast
+/-
esc
set tempo
stop
Help us to improve Ultimate-Guitar.com Take our survey!
×
Band-Semisonic
Song-Closing Time
www.UltimateGuitar.com

MY TAB IS 99% SURE!!

INTRO

|--------------|                                  |---------|
|--------------|put rythm into the chords         |---------|
|----7---------|listen to how he plays it.        |---7---5-|
|-5--7--7/10---|(you just got to get the flow)    |-5-7-7-5-|
|-5--5--7/10---|                                  |-5-5-7-3-|
|-3-----5/8----|you could also play it like this->|-3---5---|
           <- but i think the first one sounds better

Heres the chorus it starts on 0:57
|------------------------------------|
|------------------------------------|
|----------77-0(x)-------------------|
|-5-5-xxxx-77-0(x)-7-77-xxxx/10-1010-|(play that 4 times or when u get to 
|-5-5-xxxx-55-0(x)-7-77-xxxx/10-1010-| 1:18 then continue playing the intro
|-3-3-xxxx---------5-55-xxxx/8--8 8--|

This is the piano chorus thing 
|-----------------------------------|
|-12--12--15--12--12--12--13--12----|
|---12--12--12--12--12--12--12--12--|(repeat through song when necessary)
|-----------------------------------| 
|-----------------------------------|
|-----------------------------------|

PIANO solo on guitar(2:20)

|-----------11-10-8-6-------|----------------------------------------|
|-11-9-11-13---------8------|-12--12--15--12--12--12--13--12---------|
|----------------------(x3)-|---12--12--12--12--12--12--12--12--(x2)-|
|---------------------------|----------------------------------------|
|---------------------------|----------------------------------------|
|---------------------------|----------------------------------------|

GUITAR solo(2:44)
|
|-------|-------------------------------------------------|    |------|
|-------|-------------------------------------------------|    |------|
|-------|---------------77-x--------------------77-x------|    |------|Fill
|-7777--|----2-5-5-xxxx-77-x-7-77----5-9-5-xxxx-77-x-7-77-|(x2)|----2-| In
|-7777--|-3-5----5-xxxx-55-x-7-77-7-9----5-xxxx-55-x-7-77-|    |-3-5--|
|-5555--|--------3-xxxx------5-55--------3-xxxx------5-55-|    |------|

at 3:14-3:18 ring this Chord...
|----|
|----|
|----|
|-7~-|
|-7~-|
|-5~-|

and at 3:39 theirs a different ending and it goes like this...
|----------|
|----------|
|----------|
|-77-77-77-|
|-77-77-77-|
|-55-55-55-|



So heres the order 

Intro -play through 0:00-0:57
Chorus-0:57-1:17
Then play the intro again 1:17-1:58
Chrous again 1:58-2:20
Then comes the piano solo 2:20-2:45
The the GUITAR solo 2:45-3:06
INtro-3:08-3:18
Then chorus again 3:19-3:39
Then the solo again 3:39-4:15
then the intro from 4:15-to the end of the song

you ring on...
|-----|
|-----|
|-----|
|-5~~-|
|-5~~-|
|-3~~-|


Well their you have it the best tab for closing time on Ultimate-guitar. I hope i dont
get turned down when submitting this tab cause i really did work hard on it. 

Well enjoy the tab
ROCK ON!!!
IF you have any question Email me at CrapaNea@Hotmail.com
Suggest correction
comments
print report bad tab
3 comments total.
0 reply
Mc Smiley 10 wrote on September 8 2007, 09:52 am

Awesome, the best Closing time tab I have seen!

0 reply
smartin6988 177 wrote on June 12 2010, 04:52 pm

definitely not the best. i dont know how this made it through the other is much easier to read

0 reply
aron444 708 wrote on July 20 2011, 05:18 pm

solo is octives

guest
You may want to rate the tab now too:
select rating
Please do not post tabs as comments. Select "correction" instead!