Oops, an error
Loading. Please wait.

Closing Time Tab

version 8
2,141 views 6 this week
1 commentread comment
1 2 3 4 5
worth learning
x 4
add to favorites
launch autoscroll
font size
0
reset
how to read this tab
guitar tuner
Tab Pro tools
  • play this tab
  • loop segment
  • change instrument
  • show fretboard
  • metronome
×
Best way to learn
"Closing Time"
Autoscroll
slow
fast
+/-
esc
set tempo
stop
Contributor
Difficulty
novice
This Is My 1st Tab,So Don't Be Too Harsh On Me..Well It's 99.99% Correct and Since I'm 
Only Human,I'm Bound To Make Mistakes :PP

So Here It Goes:

Chords Used


   G   D   A   C
e|-x---x---x---x----|
B|-x---x---x---x----|
G|-x---7---x---5----|
D|-5---7---7---5----|
A|-5---5---7---3----|
E|-3-------5--------|

This Tab Is Played Throughout The Song During Verses 1,2,3 And 4(In Keyboard)

(Except Chorus)

e|--------------10---------------------------------------------------------|
B|--12----12---------12----12-----12------13-----12------------------------|
G|-----12----12---12----12----12------12-----12------12--------------------|
D|-------------------------------------------------------------------------|
A|-------------------------------------------------------------------------|
E|-------------------------------------------------------------------------|

Intro:

G,D,A,C x3

Verse 1

G        D
Closing time
A            C         G           D              A         C
Open all the doors and let you out into the world
G         D
Closing time
A            C             G         D            A         C
Turn all of the lights on over every boy and every girl
G         D
Closing time
A                    C         G          D       A         C
One last call for alcohol so finish your whiskey or beer
G         D
Closing time
 A             C          G       D         A     C
You don't have to go home but you can't stay here

CHORUS

G          D      A              C
I know who I want to take me home
G          D      A              C
I know who I want to take me home
G          D      A              C
I know who I want to take me home
G            D....A...C
Take Me Home.

Verse 2

G         D
Closing time
A              C       G      D          A       C
Time for you to go out to the places you will be from
G         D
Closing time
A               C       G              D           A             C
This room won't be open till your brothers or your sisters come..
      G               D   A          C
So gather up your jackets move it to the exits
  G     D       A       C
I hope you have found a friend
G        D
Closing time
A          C                   G           D          A       C
Every new beginning comes from some other beginning's end...(Yeah!)

CHORUS

G          D      A              C
I know who I want to take me home
G          D      A              C
I know who I want to take me home
G          D      A              C
I know who I want to take me home
G            D....A...C
Take Me Home(OOO-ooo--ome).

Mini-Solo

(This Is Done In Keyboard)

e|-------------9--11~~~--9--8--4--6~---------------------------------------|
B|--11~----11--------------------------------------------------------------|
G|------13-----------------------------------------------------------------|
D|-------------------------------------------------------------------------|
A|-------------------------------------------------------------------------|
E|-------------------------------------------------------------------------|



e|--------------9--11~~~11--9--8--4--6-------------------------------------|
B|----11~----11------------------------------------------------------------|
G|-12-----13---------------------------------------------------------------|
D|-------------------------------------------------------------------------|
A|-------------------------------------------------------------------------|
E|-------------------------------------------------------------------------|

e|--------------9--11~~~11--9--8--4----------------------------------------|
B|-----11~----11-----------------------------------------------------------|
G|--12-----13--------------------------------------------------------------|
D|-------------------------------------------------------------------------|
A|-------------------------------------------------------------------------|
E|-------------------------------------------------------------------------|

e|--------------10---------------------------------------------------------|
B|--12----12---------12----12-----12------13-----12------------------------|
G|-----12----12---12----12----12------12-----12------12--------------------|
D|-------------------------------------------------------------------------|
A|-------------------------------------------------------------------------|
E|-------------------------------------------------------------------------|
   Keyboard                      Guitar 1
e|--------------10------------|---x-x-x----|
B|--12----12---------12-------|---x-x-x----|
G|-----12----12---12----12----|---5-5-5----|
D|----------------------------|---5-5-5----|
A|----------------------------|---3-3-3----|
E|----------------------------|------------|


Guitar 2 (Right After Guitar 1 Plays C Chords Thrice)

e|-----------------------------------------|
B|-----------------------------------------|
G|-----5----7----9-----12------------------|
D|-----------------------------------------|
A|-----------------------------------------|
E|-----------------------------------------|

Guitar 1

 (Four Basic Chords = G,D,A,C)

Then..

Guitar 2(Play This During C)

e|-----------------------------------------|
B|----5----7-----9-----12------------------|
G|-----------------------------------------|
D|-----------------------------------------|
A|-----------------------------------------|
E|-----------------------------------------|

(Guitar 1 Again Plays G,D,A,C)

Guitar 2 (Play This During C)

e|-----------------------------------------|
B|-----------------------------------------|
G|-----5----7----9-----12------------------|
D|-----------------------------------------|
A|-----------------------------------------|
E|-----------------------------------------|

Guitar 1

 (Four Basic Chords = G,D,A,C)

Then..

Guitar 2(Play This During C)

e|-----------------------------------------|
B|----5----7-----9-----12------------------|
G|-----------------------------------------|
D|-----------------------------------------|
A|-----------------------------------------|
E|-----------------------------------------|

Guitar 1

 (Four Basic Chords G,D,A,C)

Guitar 2 (Play This During C)

e|-----------------------------------------|
B|-----------------------------------------|
G|-----5----7----9-------------------------|
D|-----------------------------------------|
A|-----------------------------------------|
E|-----------------------------------------|

Verse 3

G        D
Closing time
A                C             G          D        A    C[Hold C]
Time for you to go out to the places you will be from ...

CHORUS (Fist Chorus)

G          D      A              C
I know who I want to take me home
G          D      A              C
I know who I want to take me home
G          D      A              C
I know who I want to take me home
G            D....A...C
Take Me Home(OOO-ooo--ome).

CHORUS  (Second Chorus)


I Know Who I Want To Take Me Home

G      D          A                  C (Guitar 1)

Guitar 2(Play This During C)

e|-----------------------------------------|
B|----5----7-----9-----12------------------|
G|-----------------------------------------|
D|-----------------------------------------|
A|-----------------------------------------|
E|-----------------------------------------|

I Know Who I Want To Take Me Home


G      D          A                C   (Guitar 1)

Guitar 2(Play This During C)

e|-----------------------------------------|
B|-----------------------------------------|
G|-----5----7---9----12--------------------|
D|-----------------------------------------|
A|-----------------------------------------|
E|-----------------------------------------|


I know who I want to take me home

G      D          A                C   (Guitar 1)

e|-----------------------------------------|
B|----5----7-----9-----12------------------|
G|-----------------------------------------|
D|-----------------------------------------|
A|-----------------------------------------|
E|-----------------------------------------|

G            D....A...C
Take Me Home.

e|-----------------------------------------|
B|-----------------------------------------|
G|-----5----7---9----12--------------------|
D|-----------------------------------------|
A|-----------------------------------------|
E|-----------------------------------------|

Then..

Guitar 1

G,D,A,C

Guitar 2

e|-----------------------------------------|
B|----5----7-----9-----12------------------|
G|-----------------------------------------|
D|-----------------------------------------|
A|-----------------------------------------|
E|-----------------------------------------|

Guitar 1

G,D,A,C

Guitar 2

e|-----------------------------------------|
B|-----------------------------------------|
G|-----5----7---9----12--------------------|
D|-----------------------------------------|
A|-----------------------------------------|
E|-----------------------------------------|

Guitar 1

G,D,A,C

Guitar 2

e|-----------------------------------------|
B|----5----7-----9-----12------------------|
G|-----------------------------------------|
D|-----------------------------------------|
A|-----------------------------------------|
E|-----------------------------------------|

Verse 4


G        D
Closing time
A           C                   G            D         A   C
Every new beginning comes from some other beginning's end...


Thank You For Bearing With Me,If There's Any Correction Please Feel Free..!

It Tokk Me Soo..Much Time.!! Hope This Is One Of The Most Rated XD
comments
print report bad tab
1 comment total.
0 reply
no1_dbzfan wrote on October 22 2015, 01:34 am

The chords are incorrect (says A instead of A minor) and they don't line up properly with the lyrics. Other than that it's accurate I guess

I want to post or [tab]
guest
You may want to rate the tab now too:
select rating
Please do not post tabs as comments. Select "correction" instead!