Oops, an error
Loading. Please wait.

Closing Time Tab

version 9
20,702 views 15 this week
5 commentsread comments
1 2 3 4 5
excellent!
x 6
add to favorites
launch autoscroll
font size
0
reset
how to read this tab
guitar tuner
Tab Pro tools
  • play this tab
  • loop segment
  • change instrument
  • show fretboard
  • metronome
Autoscroll
slow
fast
+/-
esc
set tempo
stop
Difficulty
novice
GUITAR 1:Intro:G, D, Am, C x3 VERY LIGHT DISTORTION THROUGH WHOLE SONG AND A BIT 
LOUDER THAN GUIATAR 2

Strumming: Top 3 strings x2 and whole chord x1 on G and Am
           Whole chord on D and C

GUIATAR 2: come in after 1 bar of G,D,Am,C and play this only through verses CLEAN

E--------------------------------------------------------------------------|
B-------12--12--15--12--12--12--13--12-------------------------------------|
G---------12--12--12--12--12--12--12--12-----------------------------------|
D--------------------------------------------------------------------------|
A--------------------------------------------------------------------------|
E--------------------------------------------------------------------------|

GUITAR 1:Verse

G        D    Am           C         G      
    D        Am      C
Closing time open all the doors and let you out into the world

G       D    Am              C              
            D     Am    C
Closing time turn all of the lights on over every boy and every girl

G       D    Am                 C         G 
         D          Am    C
Closing time one last call for alcohol so finish your whiskey or beer

G       D    Am               C               
    D    Am     C
Closing time you dont have to go home but you can't stay here

Chorus:
G      D     Am              C
I know who I want to take me home

G      D     Am              C
I know who I want to take me home

G      D     Am              C
I know who I want to take me home
     G  D Am  C
Take me home

Verse 2:

G       D    Am               C            
         D       Am      C
Closing time time for you to go out to the places you will be from

G       D    Am                 C                 
               Am
Closing time this room won't be open 'till you're brothers or your sisters

C
come

G                 D           Am             C       
            D
So gather up your jackets move it to the exits I hope you have found a

Am        C
friend

G       D    Am          C                   
         D           Am   C
Closing time every new beginning comes from some other beginning's end  Yeah

Chorus:

G      D     Am              C
I know who I want to take me home

G      D     Am              C
I know who I want to take me home

G     D     Am              C
I kow who I want to take me home

     G  D Am
take me home


GUITAR 2: Solo


E-------------------------------------------------------------------------|
B---11--9-11-13-16-15-13-11-9-11-11--9-11-13-16-15-13-11-9-11-11----------|
G-------------------------------------------------------------------------|
D-------------------------------------------------------------------------|
A-------------------------------------------------------------------------|
E-------------------------------------------------------------------------|

E--------------------------------------------------------------------------|
B--9-11-13-16-15-13-11-9-11-12--12--15--12--12--12--13--12--12--12---------|
G-----------------------------12--12--12--12--12--12--12--12--12--12-------|
D--------------------------------------------------------------------------|
A--------------------------------------------------------------------------|
E--------------------------------------------------------------------------|

E---------------------------           ------3~~          ------3~~-|
B15--12--12--12--------8~~~~ G, D, Am  1-3-5----  G,D,Am  1-3-5-----|   G.D.Am
G--12--12--12--12-5-7-9-----           ---------          ----------|
D---------------------------           ---------          ----------|
A---------------------------           ---------          ----------|
E---------------------------           ---------          ----------|

E--------3~~           ----------|
B--1-3-5----  G, D, Am --1-3-5---|
G-----------           ----------|
D-----------           ----------|
A-----------           ----------|
E-----------           ----------|

GO BACK TO NORMAL CHORUS
G       D    Am              C              
         D       Am
Closing time time for you to go back to the places you will be from

G      D     Am              C
I know who I want to take me home

G      D     Am              C
I know who I want to take me home

G      D     Am              C
I know who I want to take me home

     G  D Am
Take me home


SWITCH TO THE G,D,AM THEN TO LITTLE LICK THING: 2ND GUITAR DOES INTRO LICK TILL END OF SONG
G      D     Am              C
I know who I want to take me home

G      D     Am              C
I know who I want to take me home

G      D     Am              C
I know who I want to take me home

     G  D Am
Take me home


DO THE G,D,Am LICK x3

G       D    Am          C                  
           D         Am
Closing time every new beginning comes from some other beginning's end
comments
print report bad tab
5 comments total. Showing first comments.
0 reply
andrewb610 wrote on January 31 2008, 06:11 pm

this isnt a matchbox 20 song its done by a band called semisonic

+1 reply
GN'R Dude wrote on May 6 2008, 09:08 pm

This just shows why people shouldn't use limewire.

0 reply
acamhi wrote on June 10 2008, 09:15 pm

Lol i thought it was matchbox 20

I want to post or [tab]
guest
You may want to rate the tab now too:
select rating
Please do not post tabs as comments. Select "correction" instead!