Oops, an error
Loading. Please wait.

Secret Smile Bass Tab

version 1
version 1

Whole song

Interactive

3,648 views 1 this week
no commentswrite comment
1 2 3 4 5
please rate
add to favorites
launch autoscroll
font size
0
reset
guitar tuner
Autoscroll
slow
fast
+/-
esc
set tempo
stop
Help us to improve Ultimate-Guitar.com Take our survey!
×
Author
Difficulty
intermediate
SEMISONIC
Secret Smile
Standard Tunning

intro with no bass

Part 1:   (x2)
-------------------------------------------------------|
-------------------------------------------------------|
-----------3466-6---6--6----4----4---------------------|
--664664646----6-644-44-4622-2246----------------------|

Part 2:  (x3)
-------------------------------------------------------|
-------------------------------------------------------|
---------3466~---6-----4-------------------------------|
--6646~-6------44-4~-22-2~-246-------------------------|

Part 1

Part 3:
-------------------------------------------------------|
-------------------------------------------------------|
-----------3466-6---6--6----4--------------------------|
--664664646----6-644-44-4622-0h2~2~-4~444~-2~222~------|

Part 4:
-------------------------------------------------------|
-------------------------------------------------------|
--4~--6~------4~--4~--6~------4~-----------------------|
----------4~--------------4~---------------------------|

Part 2 (x2)
Part 1
Part 3
Part 4 (x2, but on the last time don't play the last C#)
Part 2 (x2)
Part 1 ('til the end of the song)

Taz Mckell
Suggest correction
Give kudos to tab author, rate the tab!
1 2 3 4 5
comments
print report bad tab
guest
You may want to rate the tab now too:
select rating
Wanna post a correction for this tab? Suggest correction