Oops, an error
Loading. Please wait.

Singing In My Sleep Bass Tab

version 2
version 2

Whole song

476 views 1 this week
no commentswrite comment
1 2 3 4 5
2 more votes to show rating
add to favorites
launch autoscroll
font size
0
reset
guitar tuner
Autoscroll
slow
fast
+/-
esc
set tempo
stop
Help us to improve Ultimate-Guitar.com Take our survey!
×
Author
-------------------------------------------------------------------------------
			 SINGING IN MY SLEEP - SEMISONIC
-------------------------------------------------------------------------------

Tabbed By : James Ryan
http://world-according-to-jim.blogspot.com/

Tuning: Standard

Verse/Intro:
G|-------------------------------------------------------------------------|
D|-------------------------------------------------------------------------|
A|-7-7-7-7-7-7-7-7-7-7-7-----------------------------------0-0-0-0-0-0-0-0-|
E|-----------------------7-7-7-7-7-7-7-7-7-9-9-9-9-9-9-9-9-----------------|

Pre-Chorus:
G|-----------------------------------|
D|-----------------------------------|
A|-------------------0-0-0-0-0-0-0-0-|
E|-7-7-7-7-7-7-7-7-7-----------------|

Chorus:
G|-------------------------------------------------------|
D|-------------------------------------------------------|
A|-------------2-2-2-2-2-2-2---------------0-0-0-0-0-0-0-|
E|-0-0-0-0-0-0---------------2-2-2-2-2-2-2---------------|

Bass Solo:
G|-------------------------------------------------------------------------|
D|-------------------------------------------------------------------------|
A|--------------------14-14-14-14---12-12-12-12--14-14-14-14--16-16-16-16--|
E|-12-12-12-12-12-12-------------------------------------------------------|

G|-------------------------------------------------------------------------|
D|-------------------------------------------------------------------------|
A|-------------------14-14-14-14-14-14-16-16-16-16-16-16-12-12-12-12-12-12-|
E|-12-12-12-12-12-12-------------------------------------------------------|
Suggest correction
Give kudos to tab author, rate the tab!
1 2 3 4 5
comments
print report bad tab
guest
You may want to rate the tab now too:
select rating
Wanna post a correction for this tab? Suggest correction