Oops, an error
Loading. Please wait.

This Will Be My Year Bass Tab

556 views 1 this week
no commentswrite comment
1 2 3 4 5
please rate
add to favorites
launch autoscroll
font size
0
reset
guitar tuner
Autoscroll
slow
fast
+/-
esc
set tempo
stop
Help us to improve Ultimate-Guitar.com Take our survey!
×
Difficulty
intermediate
Band:Semisonic
Album:Feeling Strangely Fine
Tab By:P Glenn
Tuning:EADG

Intro:

   1 2 3 4| 1 2 3 4| 1 2 3 4| 1 2 3 4| 1 2 3 4| 1 2 3 4| 1 2 3 4| 1 2 3 4| 
G|--------|--------|--------|--------|--------|--------|--------|--------|
D|--------|--------|797-/25-|-20-----|--------|--------|--------|--------|
A|--------|--------|--------|----2-0-|-5-5-5-5|-5420---|--------|-------4|
E|--------|--------|--------|-------2|--------|------32|00-0-0-2|-3-7575-|

   1 2 3 4| 1 2 3 4| 1 2 3 4| 1 2 3 4| 1 2 3 4| 1 2 3 4| 1 2 3 4| 1 2 3 4|
G|--------|--------|--------|--------|--------|--------|--------|--------|
D|--------|--------|--------|--------|--------|-7--77-7|--------|45--5424|
A|-5-5-5-5|-5420---|--------|------97|-5--55-5|7-------|-7--77-7|--------|
E|--------|------32|00-0-0-2|-3-757--|--------|--------|--------|--------|


Verse:

   1 2 3 4| 1 2 3 4| 1 2 3 4| 1 2 3 4| 1 2 3 4| 1 2 3 4| 1 2 3 4| 1 2 3 4|
G|--------|--------|--------|--------|--------|--------|--------|--------|
D|2-------|-7--77-7|--------|45-50202|07--77--|-5--55--|-7--77--|-5-42420|
A|-5--55-5|7-------|-7--77-7|--------|--------|--------|--------|--------|
E|--------|--------|--------|--------|--------|--------|--------|--------|

   1 2 3 4| 1 2 3 4| 1 2 3 4| 1 2 3 4| 1 2 3 4| 1 2 3 4| 1 2 3 4| 1 2 3 4|
G|--------|--------|--------|--------|--------|--------|--------|--------|
D|--------|--------|--------|--------|-7--77--|-5--55--|-7--77--|-5-42424|
A|-5-5-5-5|-5420---|--------|--------|--------|--------|--------|--------|
E|--------|------32|00-0-0-2|-3-75757|--------|--------|--------|--------|


Pre-Chorus:

   1 2 3 4| 1 2 3 4| 1 2 3 4| 1 2 3 4| 1 2 3 4| 1 2 3 4| 1 2 3 4| 1 2 3 4|
G|--------|--------|--------|--------|--------|--------|--------|--------|
D|--------|--------|-9--99--|-9----7-|--------|--------|-9--99--|--------|
A|--------|--------|--------|----79--|--------|--------|--------|-7--77--|
E|-2222222|22222222|2-------|--------|-2222222|22222222|2-------|--------|


Chorus:

   1 2 3 4| 1 2 3 4| 1 2 3 4| 1 2 3 4| 1 2 3 4| 1 2 3 4|
G|--------|--------|--------|--------|--------|--------|
D|--------|--------|-7---79-|--------|--------|-5---77-|
A|-7---79-|-5------|5-------|-7------|-7---79-|--------|
E|--------|--------|--------|--------|--------|--------|

   1 2 3 4| 1 2 3 4| 1 2 3 4| 1 2 3 4| 1 2 3 4| 1 2 3 4| 1 2 3 4| 1 2 3 4|
G|--------|--------|--------|--------|--------|--------|--------|--------|
D|--------|--------|--------|--------|--------|--------|--------|--------|
A|-5-5-5-5|-5420---|--------|-------4|-5-5-5-5|-5420---|--------|--------|
E|--------|------32|00-0-0-2|-3-7575-|--------|------32|00-0-0-2|-3-75757|


Verse/Pre-Chrous/Chorus then repeat end of Chrous over and over
comments
We did not receive enough feedback on this tab! Please rate:
print report bad tab
1 2 3 4 5
I want to post or [tab]
guest
You may want to rate the tab now too:
select rating
Please do not post tabs as comments. Select "correction" instead!