Oops, an error
Loading. Please wait.

Bite To Break Skin Bass

version 1
version 1

Whole song

7,865 views 1 this week
4 commentsread comments
1 2 3 4 5
x 10
add to favorites
launch autoscroll
font size
0
reset
guitar tuner
Autoscroll
slow
fast
+/-
esc
set tempo
stop
Bite to Break Skin Bass Tab by Senses Fail, www.ultimate-guitar.com
o------------------------------------------------|o
|DROP D BASS TUNING|-----------------------------|DADG LOW TO HIGH
o------------------------------------------------|o
TABBED BY JIMMY R.
THE BAND'S BASS BY MIKE GLITA
INTRO

G|-----------------------------------------------|
D|-----------------------------------------------|
A|------------------------------ o---------------|o
D|-0---8---7---8---0---8---7---8 |Let each ring--|
                                 o---------------|o
INTRO 2/CHORUS
G|----------------------------------------------------------------------------|
D|---------------------------------------------------------------------- o----|o
A|---------------------------------------------------------------------- |x2--|
D|-00000000-00000000-88888888-8888888877777777-7777777788888888-88888888 o----|o

G|-----
D|-----  o--------------------------o
A|-----  |Let each ring until vocals|
D|-0-0-  o--------------------------o

VERSE 1
So let me take this medicine, do quench my love for violent things...

G|------------------------------------------------- o---------------------|o
D|------------------------------------------------- |Do this again after--|
A|------------------------------------------------- |second -0-0- part ---|
D|-8888888888888888777777777777777788888888778-10-8 o---------------------|o

G|-------------------------|
D|-------------------------|
A|-------------------------|
D|-0-0---------------------|

o-------------------------------------------------------------------o
|I'm sorry, I couldn't figure out the hammer-on part of the verses:(|
o-------------------------------------------------------------------o

PRE CHORUS
Do, you see, the life, I lead...

G|------------------------------------------------------------------|
D|------------------------------------------------------------------|
A|------------------------------------------------------------------|
D|7-7-7777777777778-8-888888888888-7-7-77777777777-8-8-888888888888-|

---CHORUS---

POST- CHORUS (for you...)
o------------------------------------------------------------------------o
|I have already given the chorus and intro, and at this point this is wh-|
|-ere he does it again.                                                  |
o------------------------------------------------------------------------o

OUTRO/FREAKIN' HEAVY PART

G|----------------------------------------------------------------------|
D|----------------------------------------------------------------------|
A|----------------------------------------------------------------------|
D|-0-0-0-0----000000000-8-8-8-8----88888888-7-7-7-7----77777777-8-8-8-8-|

G|---------------- o------|o
D|---------------- | x2---|
A|---------------- o------|o
D|-7-8-7-8h10-8-7---------|

And that's about it!!! It mostly revolves around the 8th and 7th frets. And if your
trying to get his sound it's a Fender P Bass through Ampeg Amps/Cabs.

o----------------------------------------------------o
|LYRICS                                              |
|                                                    |
|So let me take this medicine                        |
|To quench my love for violent things                |
|My Swan Song will                                   |
|                                                    |
|Be like a Bullet laced in Anger                     |
|As the Razor cuts the soft spot on                  |
|Your heel                                           |
|                                                    |
|EACH BREATH                                         |
|Is getting slower                                   |
|THIS WAR                                            |
|Is getting harder                                   |
|To fight by myself                                  |
|                                                    |
|SICK WAVES                                          |
|Of bitter fashion                                   |
|RIP DOWN                                            |
|The shield that I have                              |
|Tears rain from above                               |
|                                                    |
|Do you see? The life I lead?                        |
|                                                    |
|So follow me into the sun                           |
|And I will bleed                                    |
|The poison's dry                                    |
|                                                    |
|These bayonet scars                                 |
|Never cease                                         |
|To blind the light shed from the beast              |
|And all we do is hate                               |
|                                                    |
|EYES SHOT                                           |
|From constant visions                               |
|ANGELS                                              |
|Rendered useless                                    |
|Good has lost its heart                             |
|                                                    |
|Do you see? The life I lead?                        |
|                                                    |
|So follow me into the sun                           |
|And I will bleed                                    |
|The poison's dry                                    |
|For you                                             |
|                                                    |
|For you                                             |
|                                                    |
|FOR YOU!!!!!!!!!!!!!                                |
|                                                    |
|BITE TO BREAK SKIN                                  |
|DON'T GIVE THE SECRETS                              |
|MY STOIC FACE                                       |
|BEATEN WITH PASSION                                 |
|THE PHEONIX WILL DIE                                |
|INSIDE THE FIRESTORM                                |
|I AM THE SON                                        |
|FOLLOW MY FOOTSTEPS                                 |
o----------------------------------------------------o
Suggest correction
comments
print report bad tab
4 comments total. Showing first comments.
+1 reply
bassman_15 10 Jul 04, 2007 06:05 PM

Pretty good job a few corrections tho

Verse
G|-------------------------------------|
D|-------------------------------------|
A|-------------------------------------|
D|-00000000-77777777-88888888-7-8-10-8-|

Verse With Hammer Ons/Pull Offs
G|---------------------------------------------|
D|---------------------------------------------|
A|---------7h8p7--------7h8p7------------------|
D|-00000000-----77777777-----88888888-7-8-10-8-|

Chorus
G|-------------------------------------|
D|-------------------------------------|
A|-------------------------------------|
D|-00000000-88888888-33333333-22222222-|

0 reply
BADASSxBASSIST 20 Mar 23, 2008 09:42 AM

SO since you only use the E string (Tuned to D), which D? High or low?

0 reply
mikedayroot 10 Nov 07, 2008 03:41 PM

dude are you retarded? high or low d? try tuning your e-string to high d and see what happens.

guest
Wanna post a correction for this tab? Suggest correction