Oops, an error
Loading. Please wait.

Bite To Break Skin bass

version 2
version 2

Whole song

1,080 views 3 this week
3 commentsread comments
1 2 3 4 5
x 6
add to favorites
×
Save as Personal and add changes to this tab that will be seen only by you. Learn more ›
×
You can save this tab as Personal to edit and correct it or add notes. All changes will be seen only by you. Learn more »
launch autoscroll
font size
0
reset
guitar tuner
edit
Autoscroll
slow
fast
+/-
esc
set tempo
stop
~ - rest
p - Pause
s - stop real quick

Intro

D 0~--------8~--------7~---------8~--------|
A -----------------------------------------|
D -----------------------------------------|      *2
G -----------------------------------------|

D 00000000p00000000--88888888p88888888--77777777p77777777--88888888p88888888-|
A ---------------------------------------------------------------------------|
D ---------------------------------------------------------------------------|
G ------------------------------------------------------------------------*2-|

D 0~-----------------8888888888888888--7777777777777777--88888888-7-8-10-8--|
A --------------------------------------------------------------------------|
D --------------------------------------------------------------------------|
G ----------------------------------------------------------------------*2--|

D 0000000000000000--8888888888888888--7777777777777777--88888888-7-8-10-8-|
A ------------------------------------------------------------------------|
D ------------------------------------------------------------------------|
G --------------------------------------------------------------------*2--|

D 0-0-0-0-00-0-0-0--8-8-8-8-88-8-8-8---7-7-7-7-77-7-7-7--8-8-8-8-88-8-8-8-|
A ------------------------------------------------------------------------|
D ------------------------------------------------------------------------|
G ------------------------------------------------------------------------|

D 00000000p00000000--88888888p88888888--77777777p77777777--88888888p88888888-|
A ---------------------------------------------------------------------------|
D ---------------------------------------------------------------------------|
G ------------------------------------------------------------------------*2-|

D 0000000000000000--8888888888888888--7777777777777777--88888888-7-8-10-8-|
A ------------------------------------------------------------------------|
D ------------------------------------------------------------------------|
G --------------------------------------------------------------------*2--|

D 0-0-0-0-00-0-0-0--8-8-8-8-88-8-8-8---7-7-7-7-77-7-7-7--8-8-8-8-88-8-8-8-|
A ------------------------------------------------------------------------|
D ------------------------------------------------------------------------|
G ------------------------------------------------------------------------|

D 00000000p00000000--88888888p88888888--77777777p77777777--88888888p88888888-|
A ---------------------------------------------------------------------------|
D ---------------------------------------------------------------------------|
G ------------------------------------------------------------------------*2-|

2:20
Rest

D 0-----|
A ------|
D ------|
G ------|

2:39
D 0~--------8~--------7~---------8~--------|
A -----------------------------------------|
D -----------------------------------------|      *2
G -----------------------------------------|


D 0-0-0-0-000-0-0-0-0--8-8-8-8-888-8-8-8-8--7-7-7-7-777-7-7-7-7--8-8-8-8-888-7-8-10-8-8 0~--|
A ------------------------------------------------------------------------------------------|
D ------------------------------------------------------------------------------------------|
G ------------------------------------------------------------------------------------------|

            
            
Suggest correction
Creating personal tab
Creating personal tab
You can edit any tab online and save it as your Personal.

You can edit, replace or remove any tab part or add personal notes – all changes will be seen only by you.

Personal tabs can be accessed anytime from any device, even offline.
Learn more »
comments
print report bad tab
3 comments total.
+1 reply
Mr. Saturn 20 May 13, 2007 11:01 PM

ummm....usually the the lowest string is on the bottom.

0 reply
screamo_bassist 10 Jun 29, 2007 10:25 PM

Good try dude, but not only is this tab confusing, but its wrong, you completely left out the hammer ons and pull offs. I'll tab this out and put a correct version up.

+1 reply
bassman_15 10 Jul 04, 2007 06:08 PM

This tab is just plain wrong, very confusing to read, its off key, try looking at a few others tabs to see how they are written and listen to this song a few more times before trying to tab it out.

guest
You may want to rate the tab now too:
select rating
Wanna post a correction for this tab? Suggest correction