Oops, an error
Loading. Please wait.

Blackout bass

484 views 1 this week
no commentswrite comment
1 2 3 4 5
3 more votes to show rating
add to favorites
×
Save as Personal and add changes to this tab that will be seen only by you. Learn more ›
×
You can save this tab as Personal to edit and correct it or add notes. All changes will be seen only by you. Learn more »
launch autoscroll
font size
0
reset
guitar tuner
edit
Autoscroll
slow
fast
+/-
esc
set tempo
stop
+++++++++++++++++++++++++
| Senses Fail- Blackout |
+++++++++++++++++++++++++


"And through the tunnel for the last time..."


Tuning: Drop C (CADG)



Intro
1.
G|-------------------------------------------|
D|--------2~--------3~-----------------------|
A|-0-0-00----0-0-00-----------3~-------0~-2~-|--x2
C|---------------------0-0-00----0-0-0-------|

Verse
"I just drove under the Lincoln sign..."
2.
G|-------------------------------------------------------------------------------------|
D|-------------------------------------------------------------------------------------|
A|-0x--0-3-3-0x--0-3-3-------3-3-------5h7p3-------5-5-------5h7p3-------3-3-----------|--x2
C|---------------------0x--0-----0x--0-------7x--7-----7x--7-------5x--5-----5x--5-7-7-|

Pre-Chorus
"Into pieces..."
3.
G|---------------------------------------------------------------|
D|---------------------------------------------------------------|
A|-00~---------------------------00~-----------------------------|
C|--------77~----2-2-2-4-5-5-5-7--------77~----5-5-5-5-7~--------|

Chorus
"I feel like Im paralyzed..."
4.
G|-------------------------------------------------------------------------|
D|-------------------------------------------------------------------------|
A|-------------------------------------00003300----------------------------|
C|-00000000-00000000-44444444-44444444----------77777777-55555555-55555555-|

"At least Im feeling more alive..."
5.
G|-------------------------------------------------------------------------|
D|-------------------------------------------------------------------------|
A|-------------------------------------00003300----------------------------|
C|-00000000-00000000-44444444-44444444----------77777777-55555555-55557777-|

Outro
6.
G|-------------------------------------------|
D|--------2~--------3~-----------------------|
A|-0-0-00----0-0-00-----------3~-------0~-2~-|--x2
C|---------------------0-0-00----0-0-0-------|

Verse
"I make mountains out of my worries..."
7.
G|--------------------------------------------------------------|
D|--------------------------------------------------------------|
A|-00000x------------------3x--3x-------------------------------|
C|---------------00000x-------------77777x--------55555x--------|

"There are times..."
8.
G|---------------------------------------------------------|
D|---------------------------------------------------------|
A|-0-0000000-0-0-0-0000000-0-0-------------------------5-5-|
C|-----------------------------0-0000000-0-0-0-0000000-----|

"Holding on..."
9.
G|-------------------------------------------------------------|
D|-------------------------------------------------------------|
A|-------------------------------------------------------------|
C|-7-7777777-7-7-7-7777777-7-7-5-5555-5-5-5555-5-5-5555-5-7777-|

Pre-Chorus
"I hope that you can find some peace..."
10.
G|----------------------------------------------------------------------------------------|
D|----------------------------------------------------------------------------------------|
A|-00~---------------------------00~------------------------------------------------------|
C|--------77~----2-2-2-4-5-5-5-7--------77~----55-555-555-555-577-777-777-777-777x--------|

Chorus
"I feel like Im paralyzed..."
11.
G|-------------------------------------------------------------------------|
D|-------------------------------------------------------------------------|
A|-------------------------------------00003300----------------------------|
C|-00000000-00000000-44444444-44444444----------77777777-55555555-55555555-|

"At least Im feeling more alive..."
12.
G|-------------------------------------------------------------------------|
D|-------------------------------------------------------------------------|
A|-------------------------------------00003300----------------------------|
C|-00000000-00000000-44444444-44444444----------77777777-55555555-55557777-|

Outro
"I've got to move on..."
13.
G|---------------------------------------|
D|---------------------------------------|
A|-0~-0~-00------------------------------|
C|----------7~-7~-77-5~-5~-55-5~-5-5-777-|

Bridge
"This isnt fair, nobody taught me..."
14.
G|---------------------------------------------------------------------------|
D|----------------------------------3~---------------------------------------|
A|-0-0-00-0-0-00--0x--0-0-00-0-0-00------------------------------------0~-2~-|
C|-------------------------------------0-0-00-0-0-00--0x--0-0-00-0-0-0-------|

"But at this time I dont see clearly..."
15.
G|-----------------------------------------------------------------------------------|
D|---------------------------------------3x------------------------------------------|
A|-0-0-00-0-0-00--0x--0-0-00-0-0-00--0x-------------------------------3-33-3-33-3-33-|
C|-------------------------------------------0-0-00-0-0-00--0x---0-00----------------|

"Now Im struggling..."
16.
G|-------------------|
D|-------------------|
A|-0~----------------|
C|-------------------|

"I just wanna drown you out..."
17.
G|----------------------------------------------------------------------|
D|----------------------------------------------------------------------|
A|----------------------------------------------------------------------|
C|----------------------------------00000000-00000000-44444444-44444444-|

Outro
"If I had a drink for every..."
18.
G|-----------------------------------------------------------------|
D|-----------------------------------------------------------------|
A|-0-0-0-0-0-0-0-0----3-------3------------------------------------|
C|-----------------5-5-5-5-5-5-5-5-0-0-0-0-0-0-0-0-4-4-4-4-4-4-4-4-|

"Sleep..."
19.
G|-------------------|
D|-------------------|
A|-0~----------------|
C|-------------------|


Please rate thanks!!


Lyrics:

I just drove under the Lincoln sign
To where New Jersey meets the New York line
And through the tunnel for the last time
With everything crumbling behind
I stood still until I felt the shakes
Of two bodies that were parting ways
I didn't want to be the one to say
I know this hurts but it's time to break
Into pieces, the fault line is not secure
A boat or bridge is needed to get back to her

I feel like I am paralyzed
When I look at the extra space left in my bed
And think about all the things we did
At least I'm feeling more alive
But I still have some old weight that I've got to shed
Before I find happiness

I make mountains out of my worries
And I plant pain instead of sturdy trees
I have got to wash these old sheets
So I can fall asleep
There are times, there are times I reach for the phone
To tell you that there might still be some hope
Holding on to the slack of rope
But that's the whiskey talking, so
I hope that you can find some peace in life
Can you survive without me?
'Cause I thought I'd be fine.
Now I am slurring every single line.

I've got to move on before I can find happiness

This isn't fair, nobody taught me (how to let go)
Just be here now and you'll be set free from sorrow?
But at this time, I don't see clearly (How will I know?) 
What is the point? What is the meaning?

Now I'm struggling, I black out so I can't dream
But I still see you sneaking through my weary head
I suffer from a drought of medicine to dull self-doubt
I just wanna drown you out with southern poison
If I had a drink for every Goddamn time I think
About your pale skin dressed in pink
Then at least I could sleep
If I had a shot for every Goddamn time I thought
About your face and what I lost
At least I'd get some sleep



+++++++++++++++++++++++++++++++++
| Raileff                       |
| Underground__Dora@Hotmail.Com |
+++++++++++++++++++++++++++++++++

            
            
Suggest correction
Creating personal tab
Creating personal tab
You can edit any tab online and save it as your Personal.

You can edit, replace or remove any tab part or add personal notes – all changes will be seen only by you.

Personal tabs can be accessed anytime from any device, even offline.
Learn more »
Give kudos to tab author, rate the tab!
1 2 3 4 5
comments
print report bad tab
guest
You may want to rate the tab now too:
select rating
Wanna post a correction for this tab? Suggest correction