Oops, an error
Loading. Please wait.

Bloody Romance Tab

version 1
version 1

Solo

Whole song

Interactive

1,859 views 1 this week
3 commentsread comments
1 2 3 4 5
x 3
add to favorites
launch autoscroll
font size
0
reset
how to read this tab
guitar tuner
×
Best way to learn
"Bloody Romance"
Autoscroll
slow
fast
+/-
esc
set tempo
stop
============================================================
BRIDGE/OUTRO
=============================================================

=@=@=@=@
part 1 |
=@=@=@=@

gtr 1(clean open)
e|--------------------------------------------------------------------------|
g|-13-13------------13-13--------------13-13------------13-13---------------|
b|--10-10-14-10-14-10-10-10-14-10-14-10-10-10-14-10-14-10-10-10-15-10-15-10-|
d|--------------------------------------------------------------------------|
a|--------------------------------------------------------------------------|
d|--------------------------------------------------------------------------| x3
Back into I thought I knew, these words inside me, tell me what to do.
My heart held, in the palm of your hand.
==========================================
then with pm .... (still clean)

e|--------------------------------------------------------------------------|
g|-13-13------------13-13--------------13-13------------13-13---------------|
b|--10-10-14-10-14-10-10-10-14-10-14-10-10-10-14-10-14-10-10-10-15-10-15-10-|
d|--------------------------------------------------------------------------|
a|--------------------------------------------------------------------------|
d|--------------------------------------------------------------------------| x3

this sound much more like the real song than anything eles, it may even be those notes 
played twice but im not fast enough to play the notes doubled its kinda hard to play but 
believe it is actually right
Suggest correction
Give kudos to tab author, rate the tab!
1 2 3 4 5
comments
print report bad tab
3 comments total.
0 reply
Senses_Fail91 10 Mar 13, 2006 01:05 PM

a

0 reply
Senses_Fail91 10 Mar 13, 2006 01:06 PM

lol "a" sry that was accident. Great tab, sounds perfect,whoever gave it 2 stars sucks

0 reply
Senses_Fail91 10 Mar 13, 2006 01:16 PM

Oh btw heres an way to play it that i found easier:

e-8-8-5-5-8-8-5-5-8-8-5-5-8-8-6-6-----------------------
B--6-6-6-6-6-6-6-6-6-6-6-6-6-6-6-6----------------------

guest
You may want to rate the tab now too:
select rating
Wanna post a correction for this tab? Suggest correction