Oops, an error
Loading. Please wait.

Bloody Romance Tab

version 2
version 2

Whole song

Interactive

29,305 views 27 this week
13 commentsread comments
1 2 3 4 5
x 40
add to favorites
×
Save as Personal and add changes to this tab that will be seen only by you. Learn more ›
×
You can save this tab as Personal to edit and correct it or add notes. All changes will be seen only by you. Learn more »
save as personal
new!
launch autoscroll
font size
0
reset
how to read this tab
guitar tuner
Autoscroll
slow
fast
+/-
esc
set tempo
stop
Author
@======================================@
@ Senses Fail - Bloody Romance 	       @
@ GTRS 1 + 2 // LYRICS 		       @
@======================================@
@ tabbed by CaNAdIuM 		       @
@ canadium@hotmail.com                 @
@======================================@
@ key				       @
@ ---				       @
@ ~ - let ring			       @
@ h - hammer on			       @
@ p - pull off			       @
@ / - slide			       @
@ | - mute			       @
@				       @
@ tuned in drop d 	               @ 
@======================================@

||NOTES|| 
gtr 1 = lead
gtr 2 = rhythm

full lyrics at end of tab.

not an incredibly hard tab, only one comment
- there are actually 3 guitars at two points
in the song, one in the intro, but the bass
covers up one of them, and the second time ive
explained later on in the tab.
so, what ive tabbed is 99% perfect...
i hope. =P

great song - enjoy, and ROCK ON!!!
plz send me any criticism // comments.  thx.

================================================
INTRO
================================================

gtr 1 (clean)

e|----------------------------------------------------
g|-10101010-8-8-8-811111111--10101010-8-8-8-811111111-
b|-101010101010101010101010--101010101010101010101010-
d|----------------------------------------------------
a|----------------------------------------------------
d|---------------------------------------------------- 
p.m************************--************************-


e|----------------------------------------------------
g|-10101010-8-8-8-811111111--10101010-8-8-8-8---------
b|-101010101010101010101010--1010101010101010---------
d|----------------------------------------------------
a|----------------------------------------------------      
d|----------------------------------------------------       
p.m************************--************************-      whole thing x3


when gtr 1 is done 1st time thru above rhythm, gtr 2 comes in with gtr 1
with --

gtr 2 (clean)
e|--------------------------
g|--------------------------
b|----33335555--------------
d|000033335555--------------
a|000011113333--------------        *note - the first chord here (0-0-0)
d|0000----------------------         could be (5-7-7).  i think its 0-0-0.
p.m***********..............

e|--------------------------
g|--------------------------
b|--1010--1010--5-5-----5~|-
d|--x-x---x-x---x-x-----x~|- <-- watch timing on this last one
a|--8-8---8-8---3-3-----3~|-
d|--------------------------




gtr 1(distortion)
e|-----------------------------------------------------------------
g|-10101010-8-8-8-811111111-10101010-8-8-8-811111111-10-10-10-10~|-
b|-101010101010101010101010-101010101010101010101010-10-10-10-10~|-
d|-----------------------------------------------------------------
a|-----------------------------------------------------------------
d|----------------------------------------------------------------- x2


gtr 2(dist.)
e|---------------------------------------
g|---------------------------------------
b|--------3333333355555555--5-5-5~|------
d|000000003333333355555555--5-5-5~|------
a|000000001111111133333333--3-3-3~|------
d|00000000------------------------------- x2

============================================================================
VERSE
============================================================================
gtrs 1 + 2
e|-----------------------------------------------
g|-----------------------------------------------
b|---------------------3333-3333--3333-3333--5~|-
d|0000-0000--0000-0000-3333-3333--3333-3333--5~|-
a|0000-0000--0000-0000-1111-1111--1111-1111--3~|-
d|0000-0000--0000-0000--------------------------- x2
p.m***.****..****.****.****.****..****.****.*....

verse 1 // Life, is floating fast away. // But I look, your head is turned away.
verse 2 // SO SLICE open my veins. // AND LET the romance bleed away. 

gtr 2
e|---------------------------------------
g|---------------------------------------
b|--------333333335555555555555555-------
d|00000000333333335555555555555555-------
a|00000000111111113333333333333333-------
d|00000000-------------------------------

e|---------------------------------------
g|---------------------------------------
b|--------33333333555555555555-5-5-5-5~|-
d|0000000033333333555555555555-5-5-5-5~|-
a|0000000011111111333333333333-3-3-3-3~|-
d|00000000-------------------------------

verse 1 + 2 //From the moment you left I knew that something wasn't right. 

on the second line of the above rhythm, gtr 1 comes in with
e|-----------------------------------------------------------------
g|-10101010-8-8-8-811111111-10101010-8-8-8-811111111-10-10-10-10~|-
b|-101010101010101010101010-101010101010101010101010-10-10-10-10~|-
d|-----------------------------------------------------------------
a|-----------------------------------------------------------------
d|----------------------------------------------------------------- x1

verse 1 + 2//But the feeling inside has kept me up all night. 

====================================
CHORUS
====================================
Gtr 1
e|-----------------------------------------------------------
g|-----------------------------------------------------------
b|--101010101010101012121212121212121414141414141414---------
d|--x-x-x-x-x-x-x-x-x-x-x-x-x-x-x-x-x-x-x-x-x-x-x-x----------
a|--8-8-8-8-8-8-8-8-10101010101010101212121212121212---------
d|-----------------------------------------------------------

e|-----------------------------------------------------------
g|-----------------------------------------------------------
b|--10101010101010109999999991010101010101010----------------
d|--x-x-x-x-x-x-x-x-xxxxxxxxxx-x-x-x-x-x-x-x-----------------
a|--8-8-8-8-8-8-8-8-777777777-8-8-8-8-8-8-8-8----------------
d|-----------------------------------------------------------

e|-----------------------------------------------------------
g|-----------------------------------------------------------
b|--141414141414141412121212121212121010101010101010---------
d|--x-x-x-x-x-x-x-x-x-x-x-x-x-x-x-x-x-x-x-x-x-x-x-x----------
a|--121212121212121210101010101010108-8-8-8-8-8-8-8----------
d|-----------------------------------------------------------

e|-----------------------------------------------------------
g|-----------------------------------------------------------
b|--171717171717171715151515151515151414141414141414---------
d|--x-x-x-x-x-x-x-x-x-x-x-x-x-x-x-x-x-x-x-x-x-x-x-x----------
a|--151515151515151513131313131313131212121212121212---------
d|-----------------------------------------------------------  x2

Gtr 2
e|---------------------------------------
g|---------------------------------------
b|--------33333333--------33333333-------
d|00000000333333333333333333333333-------
a|00000000111111113333333311111111-------
d|00000000--------33333333--------------- x8

you and me are like one heart-beat. [x2] 

** lol, singer better take a deep breath before singing this! **


====================================
go back and play VERSE
====================================

============================================================
BRIDGE/OUTRO [wasnt sure what to call it lol]
=============================================================

=@=@=@=@
part 1 |
=@=@=@=@

gtr 1(clean open)
e|------------------------------------------------------------------
g|-1313------------1313------------1313------------1313-------------
b|-----101014141010----101014141010----101014141010----101015151010-
d|------------------------------------------------------------------
a|------------------------------------------------------------------
d|------------------------------------------------------------------ x3
Back into I thought I knew, these words inside me, tell me what to do.
My heart held, in the palm of your hand.
==========================================
then with pm .... (still clean)
e|------------------------------------------------------------------
g|-1313------------1313------------1313------------1313-------------
b|-----101014141010----101014141010----101014141010----101015151010-
d|------------------------------------------------------------------
a|------------------------------------------------------------------
d|------------------------------------------------------------------ x3
pm-****************************************************************-

(Forget my name) Now I know, the way to go, this place inside my demented mind. 
(Forget my name) You saw me bleeding on the bathroom floor. 


Gtr 2
(join in on the second time thru the clean open gtr 1 part)
e|---------------------------------------
g|---------------------------------------
b|----3~---------------------------------
d|0~--3~--3~--2~-------------------------
a|0~--1~--3~--2~-------------------------
d|0~------2~--2~------------------------- x2

e|---------------------------------------
g|---------------------------------------
b|--------33333333-----------------------
d|00000000333333333333333322222222-------
a|00000000111111113333333322222222-------
d|00000000--------3333333322222222------- x3
p.m.******************************-------

=@=@=@=@
part 2 |
=@=@=@=@
i made it so both parts are in line here -- to help with the timing

gtr 1
e|---------------------------------------
g|---------------------------------------
b|------10-----10----12-------9----------
d|------x------x-----x--------x----------
a|------8------8-----10-------7----------
d|--------------------------------------- x2 

gtr 2
e|---------------------------------
g|---------------------------------
b|---------------------------------
d|00-00|-88-88|-33-33|--22-22|-----
a|00-00|-88-88|-33-33|--22-22|-----
d|00-00|-88-88|-33-33|--22-22|----- x2


this part is kinda hard for gtr 1, but only cuz in the song there are 3 
guitars.

gtr 1/2 (can be played by one guitar)
e|----------------------------------------
g|----------------------------------------
b|------10-------10--------12-------9-----
d|00-00-x--88-88-x--33-33--x--22-22-x-----
a|00-00-8--88-88-8--33-33--10-22-22-7-----
d|00-00----88-88----33-33-----22-22------- x2

gtr 3
e|--------------------------------------------
g|--------------------------------------------
b|-1010-1010---99-1010-12--1414--1212-1515-14-
d|-x-x--x-x----xx-x-x--x---x-x---x-x--x-x--x--
a|-8-8--8-8----77-8-8--10--1212--1010-1313-12-
d|-------------------------------------------- x2

gtr 1
e|--
g|--
b|--
d|0~
a|0~
d|0~

gtr 2
e|----
g|----
b|10~-
d|x~--
a|8~--
d|----

** and thats it !! **

================================================================
COMPLETE LYRICS
================================================================
Life, is floating fast away. 
But I look, your head is turned away. 

From the moment you left I knew that something wasn't right. 
But the feeling inside has kept me up all night. 

You and me are like one heart-beat. [x2] 

SO SLICE open my veins. 
AND LET the romance bleed away. 

From the moment you left I knew that something wasn't right. 
But the feeling inside has kept me up all night. 

You and me are like one heart-beat. [x2] 

Back into I thought I knew, these words inside me, tell me what to do. 
My heart held, in the palm of your hand. 
(Forget my name) Now I know, the way to go, this place inside my demented mind. 
(Forget my name) You saw me bleeding on the bathroom floor. 

(Forget my name) This time in silence, this time I win. [repeat to end]
===========================================================================
Suggest correction
comments
print report bad tab
13 comments total. Showing first comments.
0 reply
Blankapeeto 65 Apr 01, 2004 07:00 PM

perfect .. good job i gave it 5 stars

0 reply
StickIt2DaMan 10 Jun 11, 2004 08:00 PM

Nice Job On This Tab This Song Takes Some Time To Tab Out Nice Work, But with the outro try playing it like this it sounds a bit better and you dont have to move your fingers so far up on the fretboard
e|------------------------------------------ Try Not to Accent it too
g|-------6---------6---------8---------6---- 6 8
b|-------x--33-33--x---------x---------x---- x x
d|00-00--3--33-33--3--33-33--5--33-33--3---- 3,5
a|00-00-----11-11-----33-33-----33-33-------
d|00-00---------------33-33-----22-22-------

0 reply
SiLeNt DeFiAnCe 10 Sep 05, 2004 08:00 PM

hey bro i like ur tab alot ill give it a 5 :P one comment thought bro...


MAKE MORE TABS!!!!! :P

guest
You may want to rate the tab now too:
select rating
Wanna post a correction for this tab? Suggest correction