Oops, an error
Loading. Please wait.

Bloody Romance tab

version 3
version 3

Whole song

Interactive

1,143 views 3 this week
4 commentsread comments
1 2 3 4 5
x 7
add to favorites
×
Save as Personal and add changes to this tab that will be seen only by you. Learn more ›
×
You can save this tab as Personal to edit and correct it or add notes. All changes will be seen only by you. Learn more »
launch autoscroll
font size
0
reset
how to read this tab
guitar tuner
edit
Autoscroll
slow
fast
+/-
esc
set tempo
stop
Artist: Senses Fail
Album: From the Depths of Dreams
Guitarists: Dave and Garrett
Track Number 3
Tuning: Drop D
Email: DCLine320@yahoo.com

There are three guitar parts in this song...
They are easy and fun to play...
Here it is...Bloody Romance

Guitar 1 - Garrett
Intro: (Clean)
e|-----------------------------------|
B|-1010101010101010-8-8-8-811111111--|
G|-10101010101010101010101010101010--|
D|-----------------------------------|
A|-----------------------------------|
D|-----------------------------------|
PM . . . . . . . . . . . . . . . .


e|-----------------------------------|
B|-1010101010101010-8-8-8-811111111--|
G|-10101010101010101010101010101010--|
D|-----------------------------------|
A|-----------------------------------|
D|-----------------------------------|
PM . . . . . . . . . . . . . . . .


e|-----------------------------------|
B|-1010101010101010-8-8-8-811111111--|
G|-10101010101010101010101010101010--|
D|-----------------------------------|
A|-----------------------------------|
D|-----------------------------------|
PM . . . . . . . . . . . . . . . .


e|-----------------------------------|
B|-1010101010101010-8-8-8-8-8-8-8-8--|
G|-10101010101010101010101010101010--|
D|-----------------------------------|
A|-----------------------------------|
D|-----------------------------------|
PM . . . . . . . . . . . . . . . .

Intro Cont.:
e|-----------------------------------|
B|-1010101010101010-8-8-8-811111111--|
G|-10101010101010101010101010101010--|
D|-----------------------------------|
A|-----------------------------------|
D|-----------------------------------|
PM . . . . . . . . . . . . . . . .


e|-----------------------------------|
B|-1010101010101010-8-8-8-811111111--|
G|-10101010101010101010101010101010--|
D|-----------------------------------|
A|-----------------------------------|
D|-----------------------------------|
PM . . . . . . . . . . . . . . . .


e|-----------------------------------|
B|-1010101010101010-8-8-8-811111111--|
G|-10101010101010101010101010101010--|
D|-----------------------------------|
A|-----------------------------------|
D|-----------------------------------|
PM . . . . . . . . . . . . . . . .


e|-----------------------------------|
B|-1010101010101010-8-8-8-8-8-8-8-8--|
G|-10101010101010101010101010101010--|
D|-----------------------------------|
A|-----------------------------------|
D|-----------------------------------|
PM . . . . . . . . . . . . . . . .

Intro Cont.:
e|-----------------------------------|
B|-1010101010101010-8-8-8-811111111--|
G|-10101010101010101010101010101010--|
D|-----------------------------------|
A|-----------------------------------|
D|-----------------------------------|
PM . . . . . . . . . . . . . . . .


e|-----------------------------------|
B|-1010101010101010-8-8-8-811111111--|
G|-10101010101010101010101010101010--|
D|-----------------------------------|
A|-----------------------------------|
D|-----------------------------------|
PM . . . . . . . . . . . . . . . .


e|-----------------------------------|
B|-1010101010101010-8-8-8-811111111--|
G|-10101010101010101010101010101010--|
D|-----------------------------------|
A|-----------------------------------|
D|-----------------------------------|
PM . . . . . . . . . . . . . . . .


e|-----------------------------------|
B|-1010101010101010-8-8-8-8---8~-----|
G|-101010101010101010101010--10~-----|
D|-----------------------------------|
A|-----------------------------------|
D|-----------------------------------|
PM . . . . . . . . . . . .


And then...

(distortion)(x2)
e|-----------------------------------|
B|-1010101010101010-8-8-8-811111111--|
G|-10101010101010101010101010101010--|
D|-----------------------------------|
A|-----------------------------------|
D|-----------------------------------|

e|-----------------------------------|
B|-1010101010101010-8-8-8-811111111--|
G|-10101010101010101010101010101010--|
D|-----------------------------------|
A|-----------------------------------|
D|-----------------------------------|

e|-----------------------------------|
B|-1010101010101010-8-8-8-811111111--|
G|-10101010101010101010101010101010--|
D|-----------------------------------|
A|-----------------------------------|
D|-----------------------------------|

e|------------------|
B|-10x10x10x-8~-----|
G|-10x10x10x10~-----|
D|------------------|
A|------------------|
D|------------------|

Verse:(x2)
e|-------------------------------------------------|
B|-------------------------------------------------|
G|-------------------------------------------------|
D|--0000-0000-0000-0000-8888-8888-8888-8888-10~----|
A|--0000-0000-0000-0000-8888-8888-8888-8888-10~----|
D|--0000-0000-0000-0000-8888-8888-8888-8888-10~----|
PM  .... .... .... .... .... .... .... ....  .

Note: The e|------- and e|--------| notes ARE correct...It is how
          B|-------     B|--------|     SF plays it live..
          G|-------     G|--------|
          D|---8---     D|---10---|
          A|---8---     A|---10---|
          D|---8---     D|---10---|

Pre-Chorus:(x1)
e|---------------------------------------------------|
B|---------------------------------------------------|
G|---------------------------------------------------|
D|--00000000-88888888-101010-101010-101010-101010----|
A|--00000000-88888888-101010-101010-101010-101010----|
D|--00000000-88888888-101010-101010-101010-101010----|

and then

e|-----------------------------------|
B|-1010101010101010-8-8-8-811111111--|
G|-10101010101010101010101010101010--|
D|-----------------------------------|
A|-----------------------------------|
D|-----------------------------------|

e|-----------------------------------|
B|-1010101010101010-8-8-8-811111111--|
G|-10101010101010101010101010101010--|
D|-----------------------------------|
A|-----------------------------------|
D|-----------------------------------|

e|-----------------------------------|
B|-1010101010101010-8-8-8-811111111--|
G|-10101010101010101010101010101010--|
D|-----------------------------------|
A|-----------------------------------|
D|-----------------------------------|

e|------------------|
B|-10x10x10x-8~-----|
G|-10x10x10x10~-----|
D|------------------|
A|------------------|
D|------------------|

Chorus:(x2)
e|-------------------------------------------------------------------------|
B|-------------------------------------------------------------------------|
G|-10101010101010101010101010101010-1212121212121212-1414141414141414------|
D|--x-x-x-x-x-x-x-x-x-x-x-x-x-x-x-x--x-x-x-x-x-x-x-x--x-x-x-x-x-x-x-x------|
A|--8-8-8-8-8-8-8-8-8-8-8-8-8-8-8-8-1010101010101010-1212121212121212------|
D|-------------------------------------------------------------------------|

e|------------------------------------------------------------------|
B|------------------------------------------------------------------|
G|-10101010101010101010101010101010-99999999-1010101010101010-------|
D|--x-x-x-x-x-x-x-x-x-x-x-x-x-x-x-x-xxxxxxxx--x-x-x-x-x-x-x-x-------|
A|--8-8-8-8-8-8-8-8-8-8-8-8-8-8-8-8-77777777--8-8-8-8-8-8-8-8-------|
D|------------------------------------------------------------------|

e|-------------------------------------------------------------------------|
B|-------------------------------------------------------------------------|
G|-14141414141414141414141414141414-1212121212121212-1414141414141414------|
D|--x-x-x-x-x-x-x-x-x-x-x-x-x-x-x-x--x-x-x-x-x-x-x-x--x-x-x-x-x-x-x-x------|
A|-12121212121212121212121212121212-1010101010101010-1212121212121212------|
D|-------------------------------------------------------------------------|

e|----------------------------------------------------------|
B|----------------------------------------------------------|
G|-1717171717171717-1515151515151515-1414141414141414-------|
D|--x-x-x-x-x-x-x-x--x-x-x-x-x-x-x-x--x-x-x-x-x-x-x-x-------|
A|-1515151515151515-1313131313131313-1212121212121212-------|
D|----------------------------------------------------------|

Verse:(x2)
e|-------------------------------------------------|
B|-------------------------------------------------|
G|-------------------------------------------------|
D|--0000-0000-0000-0000-8888-8888-8888-8888-10~----|
A|--0000-0000-0000-0000-8888-8888-8888-8888-10~----|
D|--0000-0000-0000-0000-8888-8888-8888-8888-10~----|
PM  .... .... .... .... .... .... .... ....  .

Pre-Chorus:(x1)
e|---------------------------------------------------|
B|---------------------------------------------------|
G|---------------------------------------------------|
D|--00000000-88888888-101010-101010-101010-101010----|
A|--00000000-88888888-101010-101010-101010-101010----|
D|--00000000-88888888-101010-101010-101010-101010----|

and then

e|-----------------------------------|
B|-1010101010101010-8-8-8-811111111--|
G|-10101010101010101010101010101010--|
D|-----------------------------------|
A|-----------------------------------|
D|-----------------------------------|

e|-----------------------------------|
B|-1010101010101010-8-8-8-811111111--|
G|-10101010101010101010101010101010--|
D|-----------------------------------|
A|-----------------------------------|
D|-----------------------------------|

e|-----------------------------------|
B|-1010101010101010-8-8-8-811111111--|
G|-10101010101010101010101010101010--|
D|-----------------------------------|
A|-----------------------------------|
D|-----------------------------------|

e|------------------|
B|-10x10x10x-8~-----|
G|-10x10x10x10~-----|
D|------------------|
A|------------------|
D|------------------|

Chorus:(x2)
e|-------------------------------------------------------------------------|
B|-------------------------------------------------------------------------|
G|-10101010101010101010101010101010-1212121212121212-1414141414141414------|
D|--x-x-x-x-x-x-x-x-x-x-x-x-x-x-x-x--x-x-x-x-x-x-x-x--x-x-x-x-x-x-x-x------|
A|--8-8-8-8-8-8-8-8-8-8-8-8-8-8-8-8-1010101010101010-1212121212121212------|
D|-------------------------------------------------------------------------|

e|------------------------------------------------------------------|
B|------------------------------------------------------------------|
G|-10101010101010101010101010101010-99999999-1010101010101010-------|
D|--x-x-x-x-x-x-x-x-x-x-x-x-x-x-x-x-xxxxxxxx--x-x-x-x-x-x-x-x-------|
A|--8-8-8-8-8-8-8-8-8-8-8-8-8-8-8-8-77777777--8-8-8-8-8-8-8-8-------|
D|------------------------------------------------------------------|

e|-------------------------------------------------------------------------|
B|-------------------------------------------------------------------------|
G|-14141414141414141414141414141414-1212121212121212-1414141414141414------|
D|--x-x-x-x-x-x-x-x-x-x-x-x-x-x-x-x--x-x-x-x-x-x-x-x--x-x-x-x-x-x-x-x------|
A|-12121212121212121212121212121212-1010101010101010-1212121212121212------|
D|-------------------------------------------------------------------------|

e|----------------------------------------------------------|
B|----------------------------------------------------------|
G|-1717171717171717-1515151515151515-1414141414141414-------|
D|--x-x-x-x-x-x-x-x--x-x-x-x-x-x-x-x--x-x-x-x-x-x-x-x-------|
A|-1515151515151515-1313131313131313-1212121212121212-------|
D|----------------------------------------------------------|

Bridge:(x3 regular) then (x2 palm muted)
e|-88888888-55555555-88888888-55555555-88888888-55555555-88888888-66666666-|
B|-66666666-66666666-66666666-66666666-66666666-66666666-66666666-66666666-|
G|-------------------------------------------------------------------------|
D|-------------------------------------------------------------------------|
A|-------------------------------------------------------------------------|
D|-------------------------------------------------------------------------|

Outro:(x2) Comes in after Guitar 2 does 2 of his "outro"s...
e|-------------------------------------------------------------------------|
B|-------------------------------------------------------------------------|
G|10101010-10101010-9999-10101010-12-14141414-14141414-12121212-15151515-14|
D|-x-x-x-x--x-x-x-x-xxxx--x-x-x-x--x--x-x-x-x--x-x-x-x--x-x-x-x--x-x-x-x--x|
A|-8-8-8-8--8-8-8-8-7777--8-8-8-8-10-12121212-12121212-10101010-13131313-12|
D|-------------------------------------------------------------------------|

End On:
e|----------------------|
B|----------------------|
G|--------10~~----------|
D|---------x~~----------|
A|---------8~~----------|
D|----------------------|


============================================================================Guitar 2 - Dave

Intro:(x2) Come in after 1 intro from guitar 1..
e|---------------------------------------------------------|
B|---------------------------------------------------------|
G|---------------------------------------------------------|
D|--7777777777777777-3333333333333333-5555555555555555-----|
A|--5555555555555555-1111111111111111-3333333333333333-----|
D|---------------------------------------------------------|
PM  ................ ................ ................

Intro Cont.:
e|---------------------------------------------------|
B|---------------------------------------------------|
G|---------------------------------------------------|
D|--00000000-88888888-101010-101010-101010-101010----|
A|--00000000-88888888-101010-101010-101010-101010----|
D|--00000000-88888888-101010-101010-101010-101010----|

e|---------------------------------------------------|
B|---------------------------------------------------|
G|---------------------------------------------------|
D|--00000000-88888888-1010101010101010-10x10x10x10~--|
A|--00000000-88888888-1010101010101010-10x10x10x10~--|
D|--00000000-88888888-1010101010101010-10x10x10x10~--|

Verse:(x2)
e|-------------------------------------------------|
B|-------------------------------------------------|
G|-------------------------------------------------|
D|--0000-0000-0000-0000-8888-8888-8888-8888-10~----|
A|--0000-0000-0000-0000-8888-8888-8888-8888-10~----|
D|--0000-0000-0000-0000-8888-8888-8888-8888-10~----|
PM  .... .... .... .... .... .... .... ....  .

Pre-Chorus:
e|---------------------------------------------------|
B|---------------------------------------------------|
G|---------------------------------------------------|
D|--00000000-88888888-101010-101010-101010-101010----|
A|--00000000-88888888-101010-101010-101010-101010----|
D|--00000000-88888888-101010-101010-101010-101010----|

e|---------------------------------------------------|
B|---------------------------------------------------|
G|---------------------------------------------------|
D|--00000000-88888888-1010101010101010-10x10x10x10~--|
A|--00000000-88888888-1010101010101010-10x10x10x10~--|
D|--00000000-88888888-1010101010101010-10x10x10x10~--|

Chorus:(x2)
e|----------------------------------------------------------------------|
B|----------------------------------------------------------------------|
G|----------------------------------------------------------------------|
D|-00000000000000000000000000000000-88888888888888888888888888888888----|
A|-00000000000000000000000000000000-88888888888888888888888888888888----|
D|-00000000000000000000000000000000-88888888888888888888888888888888----|

e|----------------------------------------------------------------------|
B|----------------------------------------------------------------------|
G|----------------------------------55555555555555555555555555555555----|
D|-33333333333333333333333333333333-55555555555555555555555555555555----|
A|-33333333333333333333333333333333-33333333333333333333333333333333----|
D|-33333333333333333333333333333333-------------------------------------|

Verse:(x2)
e|-------------------------------------------------|
B|-------------------------------------------------|
G|-------------------------------------------------|
D|--0000-0000-0000-0000-8888-8888-8888-8888-10~----|
A|--0000-0000-0000-0000-8888-8888-8888-8888-10~----|
D|--0000-0000-0000-0000-8888-8888-8888-8888-10~----|
PM  .... .... .... .... .... .... .... ....  .

Pre-Chorus:
e|---------------------------------------------------|
B|---------------------------------------------------|
G|---------------------------------------------------|
D|--00000000-88888888-101010-101010-101010-101010----|
A|--00000000-88888888-101010-101010-101010-101010----|
D|--00000000-88888888-101010-101010-101010-101010----|

e|---------------------------------------------------|
B|---------------------------------------------------|
G|---------------------------------------------------|
D|--00000000-88888888-1010101010101010-10x10x10x10~--|
A|--00000000-88888888-1010101010101010-10x10x10x10~--|
D|--00000000-88888888-1010101010101010-10x10x10x10~--|

Chorus:(x2)
e|----------------------------------------------------------------------|
B|----------------------------------------------------------------------|
G|----------------------------------------------------------------------|
D|-00000000000000000000000000000000-88888888888888888888888888888888----|
A|-00000000000000000000000000000000-88888888888888888888888888888888----|
D|-00000000000000000000000000000000-88888888888888888888888888888888----|

e|----------------------------------------------------------------------|
B|----------------------------------------------------------------------|
G|----------------------------------55555555555555555555555555555555----|
D|-33333333333333333333333333333333-55555555555555555555555555555555----|
A|-33333333333333333333333333333333-33333333333333333333333333333333----|
D|-33333333333333333333333333333333-------------------------------------|

Bridge:
e|------|
B|------|
G|------|
D|-0~---|     <---- Carries into guitar 1s bridge.
A|-0~---|
D|-0~---|

After Once through guitar 1s brigde play this:

e|---------------------|
B|---------------------|
G|---------------------|
D|-0~---8~---3~---3~---|    <---- x2
A|-0~---8~---3~---3~---|
D|-0~---8~---3~---2~---|

then (x2)
e|----------------------------------------------------------------------|
B|----------------------------------------------------------------------|
G|----------------------------------------------------------------------|
D|-0000000000000000-88888888888888888-33333333333333333-3333333333333333|
A|-0000000000000000-88888888888888888-33333333333333333-3333333333333333|
D|-0000000000000000-88888888888888888-33333333333333333-2222222222222222|
PM ................ ................. ................. ................

Outro:(x4)

e|----------------------------------------------------------|
B|----------------------------------------------------------|
G|-----------10------------10------------12------------9----|
D|-0000-0000--x--8888-8888--x--3333-3333--x--2222-2222-x----|
A|-0000-0000--8--8888-8888--8--3333-3333-10--2222-2222-7----|
D|-0000-0000-----8888-8888-----3333-3333-----2222-2222------|

End On:
e|----------------|
B|----------------|
G|----------------|
D|-------0~~------|
A|-------0~~------|
D|-------0~~------|

============================================================================Guitar 3 - Distortion

Intro:Comes In on last intro with guitar 1 + 2
e|------------------------------------|
B|------------------------------------|
G|--1010-1010------5-5------5---------|
D|---x-x--x-x------x-x------x---------|
A|---8-8--8-8------3-3------3---------|
D|------------------------------------|

Intro Cont.:(x2)
e|---------------------------------------------------------------|
B|---------------------------------------------------------------|
G|-10101010101010101010101010101010---55555555---5x-5x-5x-5~-----|
D|--x-x-x-x-x-x-x-x-x-x-x-x-x-x-x-x---xxxxxxxx---xx-xx-xx-x~-----|
A|--8-8-8-8-8-8-8-8-8-8-8-8-8-8-8-8---33333333---3x-3x-3x-3~-----|
D|---------------------------------------------------------------|

============================================================================There you 
song and fun to play...please rate!

            
            
Suggest correction
Creating personal tab
Creating personal tab
You can edit any tab online and save it as your Personal.

You can edit, replace or remove any tab part or add personal notes – all changes will be seen only by you.

Personal tabs can be accessed anytime from any device, even offline.
Learn more »
comments
print report bad tab
4 comments total. Showing first comments.
0 reply
2krazy 10 Mar 25, 2006 08:22 PM

Best tab of this song on here.

Good Job!

0 reply
tenchixjk 10 Jul 20, 2006 08:46 PM

I was going to tab it exactly like this. But you beat me to it! Great Tab. I saw the mistakes that guy made with that chord x133xx. Totally wrong. You can mess up the sound of the chord that way if you palm doesent correctly fit the on the bridge right. The smart way is 888xxx. Thats how SF plays it live. You saw them, I saw them. Great man. I wish i made the tab before you though! lol.

0 reply
roose 10 Sep 25, 2006 09:05 AM

well gd! :D

guest
You may want to rate the tab now too:
select rating
Wanna post a correction for this tab? Suggest correction