Oops, an error
Loading. Please wait.

Calling All Cars tab

version 1
version 1

Whole song

79,554 views 27 this week
16 commentsread comments
1 2 3 4 5
x 19
add to favorites
×
Save as Personal and add changes to this tab that will be seen only by you. Learn more ›
×
You can save this tab as Personal to edit and correct it or add notes. All changes will be seen only by you. Learn more »
launch autoscroll
font size
0
reset
how to read this tab
guitar tuner
edit
Autoscroll
slow
fast
+/-
esc
set tempo
stop
[Chords]
    B5 A5 D5 G5
x 2 4 x x x    x 0 2 x x x    0 0 0 x x x    5 5 5 x x x
   Gsus2     Bm G/B     A/C#
5 5 7 6 x x   9 9 12 x x x   9 10 12 x x x 11 12 14 x x x
     DDsus2    Dsus4 G5(type 2)
0 0 0 7 7 x    0 0 0 7 5 x    0 0 0 7 8 x    5 5 5 7 8 x
     Gsus2(type 2)A5VII     F#5E5
5 5 7 7 x x    7 7 7 9 x x    4 4 4 6 x x    2 2 2 4 x x
D5(type 2)  B5IX     Asus2    F#/A#
0 0 0 2 3 x   9 9 9 11 x x    x 0 2 2 0 0   8 9 11 x x x

(Gtr 1) (D A D G B E) - 'Gtr. 1 (elec. w/dist.)'
(Gtr 2) (D A D G B E) - 'Gtr. 2 (elec. w/dist.)'
(Gtr 3) (D A D G B E) - 'Gtr. 3 (elec. w/dist.)'
(Gtr 4) (D A D G B E) - 'Gtr. 4 (elec. w/dist.)'

[Intro]
(Moderately Fast Q=168)
  B5    A5
(4/4)
(Gtr 1)
  PM------------------------------------------------------------------|
  E E E E E E E E   E E E E E E E E   E E E E E E E E   E E E E E E E E
E|-----------------|-----------------|-----------------|-----------------|
B|-----------------|-----------------|-----------------|-----------------|
G|-----------------|-----------------|-----------------|-----------------|
D|-4-4-4-4-4-4-4-4-|-4-4-4-4-4-4-4---|-2-2-2-2-2-2-2-2-|-2-2-2-2-2-2-2-2-|
A|-2-2-2-2-2-2-2-2-|-2-2-2-2-2-2-2-0-|-0-0-0-0-0-0-0-0-|-0-0-0-0-0-0-0-0-|
E|-----------------|---------------0-|-----------------|-----------------|

  D5    G5    Gsus2
(Gtr 1)
  PM------------------------------------------------|
  E E E E E E E E   E E E E E E E E   E E E E E E E E   W
E|-----------------|-----------------|-----------------|------|
B|-----------------|-----------------|-----------------|------|
G|-----------------|-----------------|-----------------|-6----|
D|-----------------|-----------------|-----------------|-7----|
A|-0-0-0-0-0-0-0-0-|-0-0-0-0-0-0-0-0-|-5-5-5-5-5-5-5-5-|-5----|
E|-0-0-0-0-0-0-0-0-|-0-0-0-0-0-0-0-0-|-5-5-5-5-5-5-5-5-|-5----|

BmG/B   Bm
(Gtr 3)
    E  E  E  E  E  E  E  E    E  E  E  E  E  E  E  E
E|-------------------------|-------------------------|
B|-------------------------|-------------15p14-12----|
G|-------14-------14-------|-14-------14----------14-|
D|-11-12----11-12----11-12-|----11-12----------------|
A|-------------------------|-------------------------|
D|-------------------------|-------------------------|

(Gtrs 1, 2)
    E  E  E  E  E  E  E  E    E  E  E  E  E  E  E  E
E|-------------------------|-------------------------|
B|-------------------------|-------------------------|
G|-------------------------|-------------------------|
D|-12-12-12-12-12-12-12-12-|-12-12-12-12-12-12-12-12-|
A|--9--9--9--9--9--9--9--9-|-10-10-10-10--9--9--9--9-|
D|--9--9--9--9--9--9--9--9-|--9--9--9--9--9--9--9--9-|

   A/C#
    E  E  E  E  E  E  E  E    E  E  E  E  E  E  E  E
E|-------------------------|--------------------------|
B|-------------------------|-------------15p14-15-17--|
G|-------14-------14-------|-16-------14--------------|
D|-11-12----11-12----11-12-|----11-12-----------------|
A|-------------------------|--------------------------|
D|-------------------------|--------------------------|

    E  E  E  E  E  E  E  E    E  E  E  E  E  E  E  E
E|-------------------------|--------------------------|
B|-------------------------|--------------------------|
G|-------------------------|--------------------------|
D|-14-14-14-14-14-14-14-14-|-14-14-14-14-14-14-14--0--|
A|-12-12-12-12-12-12-12-12-|-12-12-12-12-12-12-12--0--|
D|-11-11-11-11-11-11-11-11-|-11-11-11-11-11-11-11--0--|

   D  Dsus2Dsus4  D     Dsus2    D
(Gtr 3)
    E  E  E  E  +E   E  E  E    +E   E  E  E  E  E  E  E
E|----17----14-(14)----15-14-|-(14)----------------------|
B|-15----15---------15-------|------15-15-15-15-14-14-15-|
G|---------------------------|---------------------------|
D|---------------------------|---------------------------|
A|---------------------------|---------------------------|
D|---------------------------|---------------------------|

    E  E  E  E   QE  E     E   E  E  E  Q     Q
E|---------------------------|---------------------------|
B|--7--7--7--5---5------8--8-|---8---7--7--5--5-----7----|
G|--7--7--7--7---7------7--7-|---7---7--7--7--7-----7----|
D|--0--0--0--0---0------0--0-|---0---0--0--0--0-----0----|
A|--0--0--0--0---0------0--0-|---0---0--0--0--0-----0----|
D|--0--0--0--0---0------0--0-|---0---0--0--0--0-----0----|

   G5  Gsus2
    E  E  E  E  +E   E  E  E    +E   E  E  E  E  E  E  E
E|----17----14-(14)----15-14-|-(14)-----------------------|
B|-15----15---------15-------|------15-15-15-15p14-14-15--|
G|---------------------------|----------------------------|
D|---------------------------|----------------------------|
A|---------------------------|----------------------------|
D|---------------------------|----------------------------|

    E  E  E  E   E   E  E  E     E   E  E  E  Q     E  E
E|---------------------------|----------------------------|
B|--8--8--8--8---8---8--8----|----------------------------|
G|--7--7--7--7---7---7--7----|---6---6--6--6--6-----6--6--|
D|--5--5--5--5---5---5--5--5-|---7---7--7--7--7-----7--7--|
A|--5--5--5--5---5---5--5--5-|---5---5--5--5--5-----5--5--|
D|--5--5--5--5---5---5--5--5-|---5---5--5--5--5-----5--5--|

[Verse 1]
Bm   ADGsus2(type 2)
(Gtr 3)
    H.Q W    WW
E|---------------------|-----------------|------------------|----------------|
B|---------------------|-----------------|------------------|----------------|
G|-16------------------|-----------------|------------------|----------------|
D|---------------------|-----------------|------------------|----------------|
A|---------------------|-----------------|------------------|----------------|
D|---------------------|-----------------|------------------|----------------|

(Gtr 2)
    E   E  q   Q  E  E    q   Q  E E E E   E  E  q   Q  E E   q  Q  E E E E
E|---------------------|-----------------|------------------|----------------|
B|---------------------|-----------------|------------------|----------------|
G|---------------------|-----------------|---11-11--11----7-|-7--7-----------|
D|--x--12-12--12--x-11-|-11--11--x-x-x-x-|-x--x--x---x--x-7-|-7--7--x-x-x-x--|
A|--x---9--9---9--x--7-|--7---7--x-x-x-x-|-x--9--9---9--x-5-|-5--5--x-x-x-x--|
D|--x---9--9---9--x--7-|--7---7--x-x-x-x-|-x--0--0---0--x-5-|-5--5--x-x-x-x--|

  (Gtr 1)
    E   E  q   Q  E  E    q   Q  E E E E   E  E  q   Q  E E   q  Q  E E E E
E|---------------------|-----------------|------------------|----------------|
B|---------------------|-----------------|----7--7---7------|----------------|
G|---------------------|-----------------|----7--7---7----7-|-7--7-----------|
D|--x--12-12--12--x-14-|-14--14--x-x-x-x-|-x--x--x---x--x-7-|-7--7--x-x-x-x--|
A|--x---9--9---9--x-12-|-12--12--x-x-x-x-|-x--x--x---x--x-5-|-5--5--x-x-x-x--|
D|--x---9--9---9--x-11-|-11--11--x-x-x-x-|-x--0--0---0--x-5-|-5--5--x-x-x-x--|

   Bm A5     DG5
   (Gtr 2)
   E  E  q   Q  E  E    q   Q  E E E E   E  E  q   Q  E E   q  Q  E E E E
E|-------------------|-----------------|------------------|----------------|
B|-------------------|-----------------|------------------|----------------|
G|-------------------|-----------------|---11-11--11----7-|-7--7-----------|
D|-x-12-12--12--x-11-|-11--11--x-x-x-x-|-x--x--x---x--x-7-|-7--7--x-x-x-x--|
A|-x--9--9---9--x--7-|--7---7--x-x-x-x-|-x--9--9---9--x-5-|-5--5--x-x-x-x--|
D|-x--9--9---9--x--7-|--7---7--x-x-x-x-|-x--0--0---0--x-5-|-5--5--x-x-x-x--|

(Gtr 1)
   E  E  q   Q  E  E    q   Q  E E E E   E  E  q   Q  E E   q  Q  E E E E
E|-------------------|-----------------|------------------|----------------|
B|-------------------|-----------------|----7--7---7------|----------------|
G|-----------------9-|--9---9----------|----7--7---7----7-|-7--7--7-7-6-0--|
D|-x-12-12--12--x--7-|--7---7--x-x-x-x-|-x--x--x---x--x-7-|-7--7--7-7-7-0--|
A|-x--9--9---9--x--7-|--7---7--x-x-x-x-|-x--x--x---x--x-5-|-5--5--5-5-5----|
D|-x--9--9---9--x--7-|--7---7--x-x-x-x-|-x--0--0---0--x-5-|-5--5--5-5-5----|

Bm G/B  A/C#
(Gtr 2)
    E  E  E  E  E  E  E  E    E  E  E  E  E  E  E  E
E|-------------------------|-------------------------|
B|----10----10----10----10-|----10----10----10----10-|
G|--7-----7-----7-----7----|--9-----9-----9-----9----|
D|-------------------------|-------------------------|
A|-------------------------|-------------------------|
D|-------------------------|-------------------------|

    E  E  E  E  E  E  E  E    E  E  E  E  E  E  E  E
E|-------------------------|-------------------------|
B|-------------------------|-----------------------0-|
G|-------------------------|-----------------------0-|
D|-12-12-12-12-12-12-12----|-14-14-14-14-14-14-14--0-|
A|--9--9--9-10-10-10-10----|-12-12-12-12-12-12-12----|
D|--9--9--9--9--9--9--9--0-|-11-11-11-11-11-11-11----|

   D  G5
    E  E  E  E  E   E  E  E    E  E  E  E  E  E  E  E
E|--------------------------|----10-------12----14-----|
B|----10----10-----10----10-|--------------------------|
G|-11----11----11-----11----|-12----12-12----12----12--|
D|--------------------------|--------------------------|
A|--------------------------|--------------------------|
D|--------------------------|--------------------------|

    E  E  E  E +QE  E    E  E  E  E  E  E  E  E
E|--------------------------|--------------------------|
B|--7--7--7--7-(7)-----7--7-|--------------------------|
G|--7--7--7--7-(7)-----7--7-|--7--7--7--7--7--7--7-----|
D|--0--0--0--0-(0)-----0--0-|--5--5--5--5--5--5--5--0--|
A|--0--0--0--0-(0)-----0--0-|--5--5--5--5--5--5--5--0--|
D|--0--0--0--0-(0)-----0--0-|--5--5--5--5--5--5--5--0--|

Bm G/B    A5
(Gtr 2)
    E  E  E  E  E  E  E  E     E  E E  E E  E E  E
E|---------------------------|---------------------|
B|----10----10----10----10---|---10---10---10---10-|
G|--7-----7-----7-----7------|-9----9----9----9----|
D|---------------------------|---------------------|
A|---------------------------|---------------------|
D|---------------------------|---------------------|

    E  E  E  E  E  E  E  S S   Q    E  E E  E E  E
E|---------------------------|---------------------|
B|---------------------------|---------------------|
G|---------------------------|-9----9--9-9--9-9----|
D|-12-12-12-12-12-12-12--x-x-|-7----7--7-7--7-7----|
A|--9--9--9-10-10-10-10--x-x-|-7----7--7-7--7-7--0-|
D|--9--9--9--9--9--9--9--x-x-|-7----7--7-7--7-7--0-|

D G5 F#5E5
    E  E  E  E  E  E  E  E    E  E  E  E  E  E E E
E|-------------------------|----10-------12----9-9-|
B|----10----10----10----10-|-----------------------|
G|-11----11----11----11----|-12----12-12----12-----|
D|-------------------------|-----------------------|
A|-------------------------|-----------------------|
D|-------------------------|-----------------------|

    E  E  E  E  E  E  E  E    E  E  E  E  E  E E E
E|-------------------------|-----------------------|
B|--7--7--7--7--7--7--7--7-|-----------------------|
G|--7--7--7--7--7--7--7--7-|--7--7--7--6--6--6-4-4-|
D|--0--0--0--0--0--0--0--0-|--5--5--5--4--4--4-2-2-|
A|--0--0--0--0--0--0--0--0-|--5--5--5--4--4--4-2-2-|
D|--0--0--0--0--0--0--0--0-|--5--5--5--4--4--4-2-2-|

[Chorus]
$
$$
D5
(Gtr 2)
  Q.    E  E  E  Q     E   E  Q   E  E E  E
E|-------------------|-----------------------|
B|-------------------|-----------------------|
G|---------11-11--9--|--9---7--7---7--7-6S=7-|
D|-0-----0--x--x--x--|--x---x--x---x--x-x--x-|
A|-0-----0--9--9--7--|--7---5--5---5--5-4S=5-|
D|-0-----0-----------|-----------------------|

(Gtr 1)
   Q   E E  Q     Q     E   E  Q   E  E E  E
E|-------------------|-----------------------|
B|-------------------|-----------------------|
G|---------14----12--|-12--11-11--11-11-9s11-|
D|-0---0-0--x-----x--|--x---x--x---x--x-x----|
A|-0---0-0-12----10--|-10---9--9---9--9-7s=9-|
D|-0---0-0-----------|-----------------------|

(Gtr 4)
   Q.    E  Q     Q    +E   E  Q   Q    E  E
E|-------------------|-----------------------|
B|-3-----3--3-----3--|-(3)--3--3---3----3--3-|
G|-2-----2--2-----2--|-(2)--2--2---2----2--2-|
D|-0-----0--0-----0--|-(0)--0--0---0----0--0-|
A|-0-----0--0-----0--|-(0)--0--0---0----0--0-|
D|-0-----0--0-----0--|-(0)--0--0---0----0--0-|

   F#5     G5
   Q  E E Q  E E   E E E E E  Q.
E|---------------|-------------------|
B|---------------|-------------------|
G|-6--6-6-6--6---|-6-6-6-6-6--7------|
D|-4--4-4-4--4---|-4-4-4-4-4--5------|
A|-4--4-4-4--4-0-|-4-4-4-4-4--5------|
D|-4--4-4-4--4-0-|-4-4-4-4-4--5------|

   Q  E E Q  E E   E E E E E  Q.
E|---------------|-------------------|
B|---------------|-------------------|
G|-9--9-9-9--9---|-9-9-9-9-9-11------|
D|-x--x-x-x--x-0-|-x-x-x-x-x--x------|
A|-7--7-7-7--7-0-|-7-7-7-7-7--9------|
D|---------------|-------------------|

   Q  E E Q  E E   E E E E E  Q   E
E|---------------|-------------------|
B|---------------|-------------------|
G|-6--6-6-6--6-6-|-6-6-6-6-6--7------|
D|-4--4-4-4--4-4-|-4-4-4-4-4--5---0--|
A|-4--4-4-4--4-4-|-4-4-4-4-4--5---0--|
D|-4--4-4-4--4-4-|-4-4-4-4-4--5---0--|

B5
(Gtr 2)
    Q   E  E  E  E  E  E    E  E  E  E  E  E  E  E
E|-----------------------|-------------------------|
B|-----------------------|-------------------------|
G|-----------11-11-11-11-|--9--9--9--9-11-11-11--0-|
D|--9---9--9--x--x--x--x-|--x--x--x--x--x--x--x--0-|
A|--9---9--9--9--9--9--9-|--7--7--7--7--9--9--9----|
D|--9---9--9-------------|-------------------------|

    Q   E  E  E  E  E  E    E  E  E  E  E  E  Q
E|-----------------------|-------------------------|
B|-----------------------|-------------------------|
G|-----------19-19-19-19-|-18-18-18-18-14-14-14\---|
D|--9---9--9--x--x--x--x-|--x--x--x--x--x--x--x----|
A|--9---9--9-17-17-17-17-|-16-16-16-16-12-12-12\---|
D|--9---9--9-------------|-------------------------|

    Q   E  E  Q     E  E    E  E  Q     E  E  E  E
E|-----------------------|-------------------------|
B|-----------------------|-------------------------|
G|-11--11-11-11----11-11-|-11-11-11----11-11-11----|
D|--9---9--9--9-----9--9-|--9--9--9-----9--9--9--0-|
A|--9---9--9--9-----9--9-|--9--9--9-----9--9--9--0-|
D|--9---9--9--9-----9--9-|--9--9--9-----9--9--9--0-|

(To Dbl. Coda)
G5D5  F#D5F#G5
     PM|   PM
    Q  E  E E  E  Q    E E E E E Q  E
E|-------------------|-----------------|
B|-------------------|-----------------|
G|-12--x-11---11s12--|-----------------|
D|--x--x--x----x-----|-0-0-4-0-4-5--5--|
A|-10--x--9----9s10--|-0-0-4-0-4-5--5--|
D|-------------------|-0-0-4-0-4-5--5--|

     PM    PM
    Q  E  E E  E  Q    E E E E E Q  E
E|-------------------|-----------------|
B|-------------------|-----------------|
G|-------------------|-----------------|
D|--5--x--5-x--5--5--|-0-0-4-0-4-5--5--|
A|--5--x--5-x--5--5--|-0-0-4-0-4-5--5--|
D|--5--x--5-x--5--5--|-0-0-4-0-4-5--5--|

     PM    PM
    Q  E  E E  E  Q    E E E E E Q  E
E|-------------------|-----------------|
B|-------------------|-----------------|
G|--7-----7----7--7--|-----------------|
D|--5--x--5-x--5--5--|-0-0-4-0-4-5--5--|
A|--5--x--5-x--5--5--|-0-0-4-0-4-5--5--|
D|--5--x--5-x--5--5--|-0-0-4-0-4-5--5--|

   D5
   Q.    E  E  E  Q    +E   E  Q   E  E E  E
E|-------------------|-----------------------|
B|-------------------|-----------------------|
G|---------11-11--9--|-(9)--7--7---7--7-6s=7-|
D|-0-----0--x--x--x--|------x--x---x--x-x--x-|
A|-0-----0--9--9--7--|-(7)--5--5---5--5-4s=5-|
D|-0-----0-----------|-----------------------|

   Q   E E  Q     Q     E   E  Q   E  E E  E
E|-------------------|-----------------------|
B|-------------------|-----------------------|
G|---------14----12--|-12--11-11--11-11-9s11-|
D|-0---0-0--x-----x--|--x---x--x---x--x-x----|
A|-0---0-0-12----10--|-10---9--9---9--9-7s=9-|
D|-0---0-0-----------|-----------------------|

   Q.    E  Q     Q    +E   E  Q   E  E E  E
E|-------------------|-----------------------|
B|-3-----3--3-----3--|-(3)--3--3---3--3-3--3-|
G|-2-----2--2-----2--|-(2)--2--2---2--2-2--2-|
D|-0-----0--0-----0--|-(0)--0--0---0--0-0--0-|
A|-0-----0--0-----0--|-(0)--0--0---0--0-0--0-|
D|-0-----0--0-----0--|-(0)--0--0---0--0-0--0-|

(To Coda)
   A5     F#5
   Q  E E Q  E E    E  E  E  E  E  Q   E
E|---------------|------------------------|
B|---------------|------------------------|
G|-6--6-6-6--6---|-12-12-12-12-12-14---0--|
D|-x--x-x-x--x---|--x--x--x--x--x--x---0--|
A|-4--4-4-4--4-0-|-10-10-10-10-10-12------|
D|---------------|------------------------|

   Q  E E Q  E E    E  E  E  E  E  Q.
E|---------------|------------------------|
B|---------------|------------------------|
G|-9--9-9-9--9---|--9--9--9--9--9-11------|
D|-x--x-x-x--x-0-|--x--x--x--x--x--x------|
A|-7--7-7-7--7-0-|--7--7--7--7--7--9------|
D|---------------|------------------------|

   Q  E E Q  E E    E  E  E  E  E  Q   E
E|---------------|------------------------|
B|---------------|--8--8--8--8--8---------|
G|-9--9-9-9--9-9-|--9--9--9--9--9---------|
D|-7--7-7-7--7-7-|--7--7--7--7--7--4---0--|
A|-7--7-7-7--7-7-|--7--7--7--7--7--4---0--|
D|-7--7-7-7--7-7-|--7--7--7--7--7--4---0--|

   B5
   Q  E E  E  E  E  E    E  E  E  E  E  E  E  E
E|--------------------|-------------------------|
B|--------------------|-------------------------|
G|--------11-11-11-11-|--9--9--9--9-11-11-11----|
D|-9--9-x--x--x--x--x-|--x--x--x--x--x--x--x--0-|
A|-9--9-x--9--9--9--9-|--7--7--7--7--9--9--9--0-|
D|-9--9-x-------------|-------------------------|

   Q  E E  E  E  E  E    E  E  E  E  E  E  Q
E|--------------------|-------------------------|
B|--------------------|-------------------------|
G|--------19-19-19-19-|-18-18-18-18-14-14-14\---|
D|-9--9-9--x--x--x--x-|--x--x--x--x--x--x--x----|
A|-9--9-9-17-17-17-17-|-16-16-16-16-12-12-12\---|
D|-9--9-9-------------|-------------------------|

   Q  E E  E  E  E  E    E  E  Q     E  E  E  E
E|--------------------|-------------------------|
B|--------------------|-------------------------|
G|--------------------|-------------------------|
D|-9--9-9--9--9--9--9-|--9--9--9-----9--9--9--0-|
A|-9--9-9--9--9--9--9-|--9--9--9-----9--9--9--0-|
D|-9--9-9--9--9--9--9-|--9--9--9-----9--9--9--0-|

   G5D5  F#D5F#G5
     PM    PM
    Q  E  E E  E  Q    E E E E E Q  E
E|-------------------|-----------------|
B|-------------------|-----------------|
G|-12--x-11---11s12--|-----------------|
D|--x--x--x----x-----|-0-0-4-0-4-5--5--|
A|-10--x--9----9s10--|-0-0-4-0-4-5--5--|
D|-------------------|-0-0-4-0-4-5--5--|

     PM    PM
    Q  E  E E  E  Q    E E E E E Q  E
E|-------------------|-----------------|
B|-------------------|-----------------|
G|-------------------|-----------------|
D|--5--x--5-x--5--5--|-0-0-4-0-4-5--5--|
A|--5--x--5-x--5--5--|-0-0-4-0-4-5--5--|
D|--5--x--5-x--5--5--|-0-0-4-0-4-5--5--|

     PM    PM
    Q  E  E E  E  Q    E E E E E Q  E
E|-------------------|-----------------|
B|-------------------|-----------------|
G|-------------------|-----------------|
D|--5--x--5-x--5--5--|-0-0-4-0-4-5--5--|
A|--5--x--5-x--5--5--|-0-0-4-0-4-5--5--|
D|--5--x--5-x--5--5--|-0-0-4-0-4-5--5--|

[Verse 2]
   Bm ADGsus2(type 2)
   E  E  q   Q  E  E    q   Q  E E E E   E  E  q   Q  E E   q  Q  E E E E
E|-------------------|-----------------|------------------|----------------|
B|-------------------|-----------------|------------------|----------------|
G|-------------------|-----------------|---11-11--11----7-|-7--7-----------|
D|-x-12-12--12--x-11-|-11--11--x-x-x-x-|-x--x--x---x--x-7-|-7--7--x-x-x-x--|
A|-x--9--9---9--x--7-|--7---7--x-x-x-x-|-x--9--9---9--x-5-|-5--5--x-x-x-x--|
D|-x--9--9---9--x--7-|--7---7--x-x-x-x-|-x--0--0---0--x-5-|-5--5--x-x-x-x--|

   E  E  q   Q  E  E    q   Q  E E E E   E  E  q   Q  E E   q  Q  E E E E
E|-------------------|-----------------|------------------|----------------|
B|-------------------|-----------------|----7--7---7------|----------------|
G|-------------------|-----------------|----7--7---7----7-|-7--7-----------|
D|-x-12-12--12--x-14-|-14--14--x-x-x-x-|-x--x--x---x--x-7-|-7--7--x-x-x-x--|
A|-x--9--9---9--x-12-|-12--12--x-x-x-x-|-x--x--x---x--x-5-|-5--5--x-x-x-x--|
D|-x--9--9---9--x-11-|-11--11--x-x-x-x-|-x--0--0---0--x-5-|-5--5--x-x-x-x--|

   Bm A5     DG5
   E  E  q   Q  E  E    q   Q  E E E E   E  E  q   Q  E E   q  Q  E E E E
E|-------------------|-----------------|------------------|----------------|
B|-------------------|-----------------|------------------|----------------|
G|-------------------|-----------------|---11-11--11----7-|-7--7-----------|
D|-x-12-12--12--x-11-|-11--11--x-x-x-x-|-x--x--x---x--x-7-|-7--7--x-x-x-x--|
A|-x--9--9---9--x--7-|--7---7--x-x-x-x-|-x--9--9---9--x-5-|-5--5--x-x-x-x--|
D|-x--9--9---9--x--7-|--7---7--x-x-x-x-|-x--0--0---0--x-5-|-5--5--x-x-x-x--|

   E  E  q   Q  E  E    q   Q  E E E E   E  E  q   Q  E E   q  Q  E E E E
E|-------------------|-----------------|------------------|----------------|
B|-------------------|-----------------|----7--7---7------|----------------|
G|-----------------9-|--9---9----------|----7--7---7----7-|-7--7--7-7-6-0--|
D|-x-12-12--12--x--7-|--7---7--x-x-x-x-|-x--x--x---x--x-7-|-7--7--7-7-7-0--|
A|-x--9--9---9--x--7-|--7---7--x-x-x-x-|-x--x--x---x--x-5-|-5--5--5-5-5----|
D|-x--9--9---9--x--7-|--7---7--x-x-x-x-|-x--0--0---0--x-5-|-5--5--5-5-5----|

   Bm G/B  A/C#
    E  E  E  E  E  E  E  E    E  E  E  E  E  E  E  E
E|-------------------------|-------------------------|
B|----10----10----10----10-|----10----10----10----10-|
G|--7-----7-----7-----7----|--9-----9-----9-----9----|
D|-------------------------|-------------------------|
A|-------------------------|-------------------------|
D|-------------------------|-------------------------|

    E  E  E  E  E  E  E  E    E  E  E  E  E  E  E  E
E|-------------------------|-------------------------|
B|-------------------------|-----------------------0-|
G|-------------------------|-----------------------0-|
D|-12-12-12-12-12-12-12----|-14-14-14-14-14-14-14--0-|
A|--9--9--9-10-10-10-10----|-12-12-12-12-12-12-12----|
D|--9--9--9--9--9--9--9--0-|-11-11-11-11-11-11-11----|

   D  G5
    E  E  E  E  E   E  E  E    E  E  E  E  E  E  E  E
E|--------------------------|----10-------12----14-----|
B|----10----10-----10----10-|--------------------------|
G|-11----11----11-----11----|-12----12-12----12----12--|
D|--------------------------|--------------------------|
A|--------------------------|--------------------------|
D|--------------------------|--------------------------|

    E  E  E  E +QE  E    E  E  E  E  E  E  E  E
E|--------------------------|--------------------------|
B|--7--7--7--7-(7)-----7--7-|--------------------------|
G|--7--7--7--7-(7)-----7--7-|--7--7--7--7--7--7--7-----|
D|--0--0--0--0-(0)-----0--0-|--5--5--5--5--5--5--5--0--|
A|--0--0--0--0-(0)-----0--0-|--5--5--5--5--5--5--5--0--|
D|--0--0--0--0-(0)-----0--0-|--5--5--5--5--5--5--5--0--|

   Bm G/B    A5
    E  E  E  E  E  E  E  E     E  E E  E E  E E  E
E|---------------------------|---------------------|
B|----10----10----10----10---|---10---10---10---10-|
G|--7-----7-----7-----7------|-9----9----9----9----|
D|---------------------------|---------------------|
A|---------------------------|---------------------|
D|---------------------------|---------------------|

    E  E  E  E  E  E  E  S S   Q    E  E E  E E  E
E|---------------------------|---------------------|
B|---------------------------|---------------------|
G|---------------------------|-9----9--9-9--9-9----|
D|-12-12-12-12-12-12-12--x-x-|-7----7--7-7--7-7----|
A|--9--9--9-10-10-10-10--x-x-|-7----7--7-7--7-7--0-|
D|--9--9--9--9--9--9--9--x-x-|-7----7--7-7--7-7--0-|

(D.S. al Coda)
   D G5 F#5E5
    E  E  E  E  E  E  E  E    E  E  E  E  E  E E E
E|-------------------------|----10-------12----9-9-|
B|----10----10----10----10-|-----------------------|
G|-11----11----11----11----|-12----12-12----12-----|
D|-------------------------|-----------------------|
A|-------------------------|-----------------------|
D|-------------------------|-----------------------|

    E  E  E  E  E  E  E  E    E  E  E  E  E  E E E
E|-------------------------|-----------------------|
B|--7--7--7--7--7--7--7--7-|-----------------------|
G|--7--7--7--7--7--7--7--7-|--7--7--7--6--6--6-4-4-|
D|--0--0--0--0--0--0--0--0-|--5--5--5--4--4--4-2-2-|
A|--0--0--0--0--0--0--0--0-|--5--5--5--4--4--4-2-2-|
D|--0--0--0--0--0--0--0--0-|--5--5--5--4--4--4-2-2-|

[Chorus 2]
   &
   B5
(Gtr 2)
   Q  E E  E  E  E  E    E  E  E  E  E  E  E  E
E|--------------------|-------------------------|
B|--------------------|-------------------------|
G|--------11-11-11-11-|--9--9--9--9-11-11-11----|
D|-9--9-x--x--x--x--x-|--x--x--x--x--x--x--x--0-|
A|-9--9-x--9--9--9--9-|--7--7--7--7--9--9--9--0-|
D|-9--9-x-------------|-------------------------|

   (Gtr 1)
   Q  E E  E  E  E  E    E  E  E  E  E  E  Q
E|--------------------|-------------------------|
B|--------------------|-------------------------|
G|--------19-19-19-19-|-18-18-18-18-14-14-14\---|
D|-9--9-9--x--x--x--x-|--x--x--x--x--x--x--x----|
A|-9--9-9-17-17-17-17-|-16-16-16-16-12-12-12\---|
D|-9--9-9-------------|-------------------------|

   (Gtr 4)
   Q  E E  E  E  E  E    E  E  Q     E  E  E  E
E|--------------------|-------------------------|
B|--------------------|-------------------------|
G|--------------------|-------------------------|
D|-9--9-9--9--9--9--9-|--9--9--9-----9--9--9--0-|
A|-9--9-9--9--9--9--9-|--9--9--9-----9--9--9--0-|
D|-9--9-9--9--9--9--9-|--9--9--9-----9--9--9--0-|

   G5D5  F#D5G5A5
     PM    PM
    Q  E  E E  E  Q    E E E E E Q  E
E|-------------------|-----------------|
B|-------------------|-----------------|
G|-12--x-11---11s12--|-----------------|
D|--x--x--x----x-----|-0-0-4-0-5-7--7--|
A|-10--x--9----9s10--|-0-0-4-0-5-7--7--|
D|-------------------|-0-0-4-0-5-7--7--|

     PM    PM
    Q  E  E E  E  Q    E E E E E Q  E
E|-------------------|-----------------|
B|-------------------|-----------------|
G|-------------------|-----------------|
D|--5--x--5-x--5--5--|-0-0-4-0-5-7--7--|
A|--5--x--5-x--5--5--|-0-0-4-0-5-7--7--|
D|--5--x--5-x--5--5--|-0-0-4-0-5-7--7--|

     PM    PM
    Q  E  E E  E  Q    E E E E E Q  E
E|-------------------|-----------------|
B|-------------------|-----------------|
G|-------------------|-----------------|
D|--5--x--5-x--5--5--|-0-0-4-0-5-7--7--|
A|--5--x--5-x--5--5--|-0-0-4-0-5-7--7--|
D|--5--x--5-x--5--5--|-0-0-4-0-5-7--7--|

[Bridge]
   B5
     ~
   E E E E  E  E E E   E E E E E E Q
E|-------------------|----------------|
B|-------------------|----------------|
G|---------11-11-9-9-|-9-9-7-7-7-7-6--|
D|-9-9-9-9-----------|----------------|
A|-9-9-9-9-----------|----------------|
D|-9-9-9-9-----------|----------------|

     ~
   E E E E  E  E E E   E E E E E E Q
E|-------------------|----------------|
B|---------10-10-8-8-|-8-8-7-7-7-7----|
G|-------------------|-------------9--|
D|-9-9-9-9-----------|----------------|
A|-9-9-9-9-----------|----------------|
D|-9-9-9-9-----------|----------------|

   E E E E  q    Q     W
E|-------------------|----------------|
B|-------------------|----------------|
G|-4-4-4-4--4--------|----------------|
D|-4-4-4-4--4--------|----------------|
A|-2-2-2-2--2--------|----------------|
D|-------------------|----------------|

   A5Asus2
     ~
   E E E E  E  E E E    E  E  E  E  E  E Q
E|---------10-10-7-7-|--7--7------------------|
B|-------------------|-------10-10-10-10-7----|
G|-------------------|------------------------|
D|-7-7-7-7-----------|------------------------|
A|-7-7-7-7-----------|------------------------|
D|-7-7-7-7-----------|------------------------|

     ~
   E E E E  E  E E E    E  E  E  E  E  E Q
E|-------------------|------------------------|
B|---------10-10-8-8-|--8--8--7--7--7--7------|
G|-------------------|-------------------7----|
D|-7-7-7-7-----------|------------------------|
A|-7-7-7-7-----------|------------------------|
D|-7-7-7-7-----------|------------------------|

   E E E E  Q    Q     +Q     Q     E  E E E
E|---------------0---|-(0)----0-----0--0-0-0--|
B|---------------0---|-(0)----0-----0--0-0-0--|
G|-2-2-2-2--2----2---|-(2)----2-----2--2-2-2--|
D|-2-2-2-2--2----2---|-(2)----2-----2--2-2-2--|
A|-0-0-0-0--0----0---|-(0)----0-----0--0-0-0--|
D|-------------------|------------------------|

   D5  F#D5F#G5     N.C.    F#G5     D5  F#D5F#G5     N.C.    F#G5
   PM    PM     PM  PM   PM    PM     PM  PM
   E E E E E Q  E   E E E E E Q.     E E E E E Q  E   E E E E E Q  E
E|----------------|----------------|----------------|-----------------|
B|----------------|----------------|----------------|-----------------|
G|----------------|----------------|----------------|-----------------|
D|-0-0-4-0-4-5----|-9p7-----4-5----|-0-0-4-0-4-5----|-9p7-----4-5--0--|
A|-0-0-4-0-4-5--0-|-----9-0-4-5----|-0-0-4-0-4-5--0-|-----9-0-4-5--0--|
D|-0-0-4-0-4-5--0-|-------0-4-5----|-0-0-4-0-4-5--0-|-------0-4-5-----|

(Gtrs 1, 4)
   PM    PM     PM  PM   PM    PM     PM  PM
   E E E E E Q  E   E E E E E Q.     E E E E E Q  E   E E E E E Q  E
E|----------------|----------------|----------------|-----------------|
B|----------------|----------------|----------------|-----------------|
G|----------------|----------------|----------------|-----------------|
D|-0-0-4-0-4-5----|-5p4-----4-5----|-0-0-4-0-4-5----|-5p4-----4-5--0--|
A|-0-0-4-0-4-5--0-|-----5---4-5----|-0-0-4-0-4-5--0-|-----5---4-5--0--|
D|-0-0-4-0-4-5--0-|-------0-4-5----|-0-0-4-0-4-5--0-|-------0-4-5-----|

   B5
(Gtr 2)
 ~
   E E E E  E  E E E    E  E E E E E Q
E|-------------------|-------------------|
B|-------------------|-------------------|
G|---------11-11-9-9-|--9--9-7-7-7-7-6---|
D|-9-9-9-9-----------|-------------------|
A|-9-9-9-9-----------|-------------------|
D|-9-9-9-9-----------|-------------------|

(Gtr 1)
       ~
   E E E E  E  E E E    E  E E E E E Q
E|-------------------|-------------------|
B|---------10-10-8-8-|--8--8-7-7-7-7-----|
G|-------------------|---------------9---|
D|-9-9-9-9-----------|-------------------|
A|-9-9-9-9-----------|-------------------|
D|-9-9-9-9-----------|-------------------|

(Gtr 4)
 | E E E E  Q    Q     +Q    H E E
E|---------------0---|-(0)---0-------0---|
B|---------------0---|-(0)---0-------0---|
G|-4-4-4-4--4----4---|-(4)---4-------4---|
D|-4-4-4-4--4----4---|-(4)---4-------4---|
A|-2-2-2-2--2----2---|-(2)---2-------2-0-|
D|-------------------|-----------------0-|

   A5Asus2
     ~
   E E E E  E  E E E    E  E  E  E  E  E Q
E|---------10-10-7-7-|--7--7------------------|
B|-------------------|-------10-10-10-10-7----|
G|-------------------|------------------------|
D|-7-7-7-7-----------|------------------------|
A|-7-7-7-7-----------|------------------------|
D|-7-7-7-7-----------|------------------------|

     ~
   E E E E  E  E E E    E  E  E  E  E  E Q
E|-------------------|------------------------|
B|---------10-10-8-8-|--8--8--7--7--7--7------|
G|-------------------|-------------------7----|
D|-7-7-7-7-----------|------------------------|
A|-7-7-7-7-----------|------------------------|
D|-7-7-7-7-----------|------------------------|

   E E E E  Q    Q     +Q     Q     E  E E E
E|---------------0---|-(0)----0-----0--0-0-0--|
B|---------------0---|-(0)----0-----0--0-0-0--|
G|-2-2-2-2--2----2---|-(2)----2-----2--2-2-2--|
D|-2-2-2-2--2----2---|-(2)----2-----2--2-2-2--|
A|-0-0-0-0--0----0---|-(0)----0-----0--0-0-0--|
D|-------------------|------------------------|

   D5  F#D5F#G5     N.C.    F#G5     D5  F#D5F#G5     N.C.    F#G5
   PM|   PM     PM  PM   PM|   PM     PM  PM
   E E E E E Q  E   E E E E E Q.     E E E E E Q  E   E E E E E Q  E
E|----------------|----------------|----------------|-----------------|
B|----------------|----------------|----------------|-----------------|
G|----------------|----------------|----------------|-----------------|
D|-0-0-4-0-4-5----|-9p7-----4-5----|-0-0-4-0-4-5----|-9p7-----4-5--0--|
A|-0-0-4-0-4-5--0-|-----9-0-4-5----|-0-0-4-0-4-5--0-|-----9-0-4-5--0--|
D|-0-0-4-0-4-5--0-|-------0-4-5----|-0-0-4-0-4-5--0-|-------0-4-5-----|

(Gtrs 1, 4)
   PM    PM     PM  PM   PM    PM     PM  PM
   E E E E E Q  E   E E E E E Q.     E E E E E Q  E   E E E E E Q  E
E|----------------|----------------|----------------|-----------------|
B|----------------|----------------|----------------|-----------------|
G|----------------|----------------|----------------|-----------------|
D|-0-0-4-0-4-5----|-5p4-----4-5----|-0-0-4-0-4-5----|-5p4-----4-5--0--|
A|-0-0-4-0-4-5--0-|-----5---4-5----|-0-0-4-0-4-5--0-|-----5---4-5--0--|
D|-0-0-4-0-4-5--0-|-------0-4-5----|-0-0-4-0-4-5--0-|-------0-4-5-----|

   B5
(Gtr 2)
    W   +H..     S S
E|----------------------|--------------------------|
B|----------------------|--------------------------|
G|--7-------------------|-(7)----------------------|
D|--x-------------------|--------------------------|
A|--5-------------------|-(5)------------------x-x-|
D|----------------------|----------------------x-x-|

(Gtr 1)
    E  E E  E  q   E  E    E    E  q   E  E  E S S
E|----------------------|--------------------------|
B|-10-10---10-10--10-10-|------10-10--10-10-10-----|
G|--x--x----x--x---x--x-|-------x--x---x--x--x-----|
D|-12-12---12-12--12-12-|------12-12--12-12-12-----|
A|--9--9----9--9---9--9-|-------9--9---9--9--9-x-x-|
D|--9--9----9--9---9--9-|-------9--9---9--9--9-x-x-|

(Gtr 4)
    W   +H..     S S
E|----------------------|--------------------------|
B|----------------------|--------------------------|
G|----------------------|--------------------------|
D|--9-------------------|-(9)----------------------|
A|--9-------------------|-(9)------------------x-x-|
D|--9-------------------|-(9)------------------x-x-|

   A5
   TP
    W    W
E|----------------------|-----------------------|
B|----------------------|-----------------------|
G|--9-------------------|-----------------------|
D|--x-------------------|-----------------------|
A|--7-------------------|-\------------------|
D|----------------------|-----------------------|

    E  E E  E  q   E  E    E    E  q   E  E  q
E|----------------------|-----------------------|
B|-10-10---10-10--10-10-|------10-10--10-10-10--|
G|--x--x----x--x---x--x-|-------x--x---x--x--x--|
D|-11-11---11-11--11-11-|------11-11--11-11-11--|
A|--0--0----0--0---0--0-|-------0--0---0--0--0--|
D|----------------------|-----------------------|

   TP
    W    W
E|----------------------|-----------------------|
B|----------------------|-----------------------|
G|--9-------------------|-----------------------|
D|--7-------------------|-----------------------|
A|--7-------------------|-\------------------|
D|--7-------------------|-----------------------|

   D5
   E E E  E  E   E  E  E    E  E  E  E  E  E  E  E
E|-----------------------|-------------------------|
B|-----------------------|-------------------------|
G|-7-7-7-14-14--14-11-11-|-11-11-11-11-11-11-11-11-|
D|-x-x-x--x--x---x--x--x-|--x--x--x--x--x--x--x--x-|
A|-5-5-5-12-12--12--9--9-|--9--9--9--9--9--9--9--9-|
D|-----------------------|-------------------------|

   E E E  E +QE  E    E  E  E  E  E  E  E  E
E|-----------------------|-------------------------|
B|-----------------------|-------------------------|
G|-7-7-7--7-(7)-----7--7-|--7--7--7--7--7--7--7--7-|
D|-7-7-7--7-(7)-----7--7-|--7--7--7--7--7--7--7--7-|
A|-5-5-5--5-(5)-----5--5-|--5--5--5--5--5--5--5--5-|
D|-0-0-0--0-(0)-----0--0-|--0--0--0--0--0--0--0--0-|

   E E E  E +QE  E    E  E  E  E  E  E  E  E
E|-----------------------|-------------------------|
B|-3-3-3--3-(3)-----3--3-|--3--3--3--3--3--3--3--3-|
G|-2-2-2--2-(2)-----2--2-|--2--2--2--2--2--2--2--2-|
D|-0-0-0--0-(0)-----0--0-|--0--0--0--0--0--0--0--0-|
A|-0-0-0--0-(0)-----0--0-|--0--0--0--0--0--0--0--0-|
D|-0-0-0--0-(0)-----0--0-|--0--0--0--0--0--0--0--0-|

(D.S.S. al Dbl. Coda)
  G5 F#5
   |--3--|  |--3--|
  E E E  E  E   E  E  E    Q  Q  Q  Q  Q  Q
E|-----------------------|-------------------|
B|-----------------------|-------------------|
G|-7-7-7-14-14--14-14-14-|-16-16-16-18-18-18-|
D|-x-x-x--x--x---x--x--x-|--x--x--x--x--x--x-|
A|-5-5-5-12-12--12-12-12-|-14-14-14-16-16-16-|
E|-----------------------|-------------------|

      PM PM 
   |--3--|  |--3--|
  E E E  E +E   E  Q Q  Q  Q  Q  Q  Q
E|-----------------------|-------------------|
B|-----------------------|-------------------|
G|-7-7-7--7-(7)--7--7----|--7--------6-------|
D|-7-7-7--7-(7)--7--7----|--5--5--5--4--4--4-|
A|-5-5-5--5-(5)--5--5----|--5--5--5--4--4--4-|
E|-0-0-0--0-(0)--0--0----|--5--5--5--4--4--4-|

      PM PM
   |--3--|  |--3--|
  E E E  E +E   E  Q Q  Q  Q  Q  Q  Q
E|-----------------------|-------------------|
B|-----------------------|-------------------|
G|-7-7-7--7-(7)--7--7----|--7--------6-------|
D|-5-5-5--5-(5)--5--5----|--5--5--5--4--4--4-|
A|-5-5-5--5-(5)--5--5----|--5--5--5--4--4--4-|
E|-5-5-5--5-(5)--5--5----|--5--5--5--4--4--4-|

[Chorus3]
   &&
   D5A5  N.C.F#5
   Q.    E  E  E  Q    +E   E  Q   E  E E  E   Q  E E Q  E E   E E E E E  Q.
E|-------------------|-----------------------|---------------|------------------|
B|-------------------|-----------------------|---------------|------------------|
G|---------11-11--9--|-(9)--7--7---7--7-6s=7-|-6--6-6-6--6---|-----------14-----|
D|-0-----0--x--x--x--|------x--x---x--x-x--x-|-x--x-x-x--x---|-x-x-x-x-x--x-----|
A|-0-----0--9--9--7--|-(7)--5--5---5--5-4s=5-|-4--4-4-4--4-0-|-x-x-x-x-x-12-----|
D|-0-----0-----------|-----------------------|---------------|-x-x-x-x-x--------|

   Q   E E  Q     Q     E   E  Q   E  E E  E   Q  E E Q  E E   E E E E E  Q.
E|-------------------|-----------------------|---------------|------------------|
B|-------------------|-----------------------|---------------|------------------|
G|---------14----12--|-12--11-11--11-11-9s11-|-9--9-9-9--9---|-----------11-----|
D|-0---0-0--x-----x--|--x---x--x---x--x-x----|-x--x-x-x--x-0-|-x-x-x-x-x--x-----|
A|-0---0-0-12----10--|-10---9--9---9--9-7s=9-|-7--7-7-7--7-0-|-x-x-x-x-x--9-----|
D|-0---0-0-----------|-----------------------|---------------|-x-x-x-x-x--------|

   Q.    E  Q     Q    +E   E  Q   E  E E  E   Q  E E Q  E E   E E E E E  Q.
E|-------------------|-----------------------|---------------|------------------|
B|-3-----3--3-----3--|-(3)--3--3---3--3-3--3-|---------------|------------------|
G|-2-----2--2-----2--|-(2)--2--2---2--2-2--2-|-9--9-9-9--9-9-|------------------|
D|-0-----0--0-----0--|-(0)--0--0---0--0-0--0-|-7--7-7-7--7-7-|-x-x-x-x-x--4-----|
A|-0-----0--0-----0--|-(0)--0--0---0--0-0--0-|-7--7-7-7--7-7-|-x-x-x-x-x--4-----|
D|-0-----0--0-----0--|-(0)--0--0---0--0-0--0-|-7--7-7-7--7-7-|-x-x-x-x-x--4-----|

   B5
   Q  E E  E  E  E  E    E  E  E  E  E  E  E  E
E|--------------------|-------------------------|
B|--------------------|-------------------------|
G|--------11-11-11-11-|--9--9--9--9-11-11-11----|
D|-9--9-x--x--x--x--x-|--x--x--x--x--x--x--x--0-|
A|-9--9-x--9--9--9--9-|--7--7--7--7--9--9--9--0-|
D|-9--9-x-------------|-------------------------|

   Q  E E  E  E  E  E    E  E  E  E  E  E  Q
E|--------------------|-------------------------|
B|--------------------|-------------------------|
G|--------19-19-19-19-|-18-18-18-18-14-14-14\---|
D|-9--9-9--x--x--x--x-|--x--x--x--x--x--x--x----|
A|-9--9-9-17-17-17-17-|-16-16-16-16-12-12-12\---|
D|-9--9-9-------------|-------------------------|

   Q  E E  E  E  E  E    E  E  Q     E  E  E  E
E|--------------------|-------------------------|
B|--------------------|-------------------------|
G|--------------------|-------------------------|
D|-9--9-9--9--9--9--9-|--9--9--9-----9--9--9--0-|
A|-9--9-9--9--9--9--9-|--9--9--9-----9--9--9--0-|
D|-9--9-9--9--9--9--9-|--9--9--9-----9--9--9--0-|

   G5D5  F#D5F#G5
     PM    PM
    Q  E  E E  E  Q    E E E E E Q  E
E|-------------------|-----------------|
B|-------------------|-----------------|
G|-12--x-11---11s12--|-----------------|
D|--x--x--x----x-----|-0-0-4-0-4-5--5--|
A|-10--x--9----9s10--|-0-0-4-0-4-5--5--|
D|-------------------|-0-0-4-0-4-5--5--|

     PM    PM
    Q  E  E E  E  Q    E E E E E Q  E
E|-------------------|-----------------|
B|-------------------|-----------------|
G|-------------------|-----------------|
D|--5--x--5-x--5--5--|-0-0-4-0-4-5--5--|
A|--5--x--5-x--5--5--|-0-0-4-0-4-5--5--|
D|--5--x--5-x--5--5--|-0-0-4-0-4-5--5--|

     PM   PM
    Q  E  E E  E  Q    E E E E E Q  E
E|-------------------|-----------------|
B|-------------------|-----------------|
G|-------------------|-----------------|
D|--5--x--5-x--5--5--|-0-0-4-0-4-5--5--|
A|--5--x--5-x--5--5--|-0-0-4-0-4-5--5--|
D|--5--x--5-x--5--5--|-0-0-4-0-4-5--5--|

[Outro]
     D5
    E E E E  E  E E E   E E E E E E Q
E|--------------------|-----------------|
B|o-------------------|-----------------|
G|--7-7-7-7-11-11-9-9-|-9-9-7-7-7-7-6---|
D|--------------------|-----------------|
A|o-------------------|-----------------|
D|--------------------|-----------------|

    E E E E  E  E E E   E E E E E E Q
E|--------------------|-----------------|
B|o---------10-10-8-8-|-8-8-7-7-7-7-----|
G|--7-7-7-7-----------|-------------9---|
D|--------------------|-----------------|
A|o-------------------|-----------------|
D|--------------------|-----------------|

    Q   Q    E  E E E   E E Q   E E E E
E|--------------------|-----------------|
B|o-3---3----3--3-3-3-|-3-3-3---3-3-3-3-|
G|--2---2----2--2-2-2-|-2-2-2---2-2-2-2-|
D|--0---0----0--0-0-0-|-0-0-0---0-0-0-0-|
A|o-0---0----0--0-0-0-|-0-0-0---0-0-0-0-|
D|--0---0----0--0-0-0-|-0-0-0---0-0-0-0-|

   A5    F#/A#
   E E E E  E  E E E   E E  E  E  E  E  E  E
E|---------10-10-7-7-|-7-7-------------------|
B|-------------------|-----10-10-11-11-11-11-|
G|-6-6-6-6-----------|-----------------------|
D|-------------------|-----------------------|
A|-------------------|-----------------------|
D|-------------------|-----------------------|

   E E E E  E  E E E   E E  E  E  E  E  E  E
E|-------------------|------------9--9--9--9-|
B|---------10-10-8-8-|-8-8--7--7-------------|
G|-9-9-9-9-----------|-----------------------|
D|-------------------|-----------------------|
A|-------------------|-----------------------|
D|-------------------|-----------------------|

   E E E E  E  E E E   E E  E  E  E  E  E  E
E|-------------------|-----------------------|
B|-------------------|-----------------------|
G|-9-9-9-9--9--9-9-9-|-9-9--9----------------|
D|-7-7-7-7--7--7-7-7-|-7-7--7--0-11-11-11-11-|
A|-7-7-7-7--7--7-7-7-|-7-7--7--0--9--9--9--9-|
D|-7-7-7-7--7--7-7-7-|-7-7--7-----8--8--8--8-|

   1.
   Bm
    E  E  E  E  E  E  E  E    E  E  E  E  E  E  E  E
E|-------------------------|-------------------------|
B|-12-12-12-12-------------|-------------------------|
G|-------------11-11--9--9-|--9--9-12-12-12-12-11-11-|
D|-------------------------|-------------------------|
A|-------------------------|-------------------------|
D|-------------------------|-------------------------|

    E  E  E  E  E  E  E  E    E  E  E  E  E  E  E  E
E|-------------------------|-------------------------|
B|-------------10-10--8--8-|--8--8-12-12-12-12-10-10-|
G|--7--7--7--7-------------|-------------------------|
D|-------------------------|-------------------------|
A|-------------------------|-------------------------|
D|-------------------------|-------------------------|

    E  E  E  E  E  E  E  E    E  E  E  E  E  E  E  E
E|-------------------------|-------------------------|
B|-------------------------|-------------------------|
G|-------------------------|-----------------------0-|
D|-12-12-12-12-12-12-12-12-|-12-12-12-12-12-12-12--0-|
A|--9--9--9--9--9--9--9--9-|--9--9--9--9--9--9--9--0-|
D|--9--9--9--9--9--9--9--9-|--9--9--9--9--9--9--9----|

   G5
    E  E  E  E  E  E  E  E    E  E  E  E  E  E  E  E
E|-------------------------|---------------------------|
B|-------------------------|--------------------------o|
G|-12-12-12-11-11-11-------|-12-12-12-11-11-11--9--9---|
D|-------------------12-12-|---------------------------|
A|-------------------------|--------------------------o|
D|-------------------------|---------------------------|

    E  E  E  E  E  E  E  E    E  E  E  E  E  E  E  E
E|-------------------------|---------------------------|
B|-12-12-12-10-10-10-------|-12-12-12-10-10-10--------o|
G|-------------------11-11-|-------------------12-12---|
D|-------------------------|---------------------------|
A|-------------------------|--------------------------o|
D|-------------------------|---------------------------|

    E  E  E  E  E  E  E  E    E  E  E  E  E  E  E  E
E|-------------------------|---------------------------|
B|-------------------------|--------------------------o|
G|--7--7--7--7--7--7--7--7-|--7--7--7--7--7--7--7------|
D|--5--5--5--5--5--5--5--5-|--5--5--5--5--5--5--5--0---|
A|--5--5--5--5--5--5--5--5-|--5--5--5--5--5--5--5--0--o|
D|--5--5--5--5--5--5--5--5-|--5--5--5--5--5--5--5--0---|

   2.
   Bm
    E  E  E  E  E  E  E  E    E  E  E  E  E  E  E  E
E|-------------------------|-------------------------|
B|-12-12-12-12-------------|-------------------------|
G|-------------11-11--9--9-|--9--9-12-12-12-12-11-11-|
D|-------------------------|-------------------------|
A|-------------------------|-------------------------|
D|-------------------------|-------------------------|

    E  E  E  E  E  E  E  E    E  E  E  E  E  E  E  E
E|-------------------------|-------------------------|
B|--7--7--7--7-10-10--8--8-|--8--8-12-12-12-12-10-10-|
G|-------------------------|-------------------------|
D|-------------------------|-------------------------|
A|-------------------------|-------------------------|
D|-------------------------|-------------------------|

    E  E  E  E  E  E  E  E    E  E  E  E  E  E  E  E
E|-------------------------|-------------------------|
B|-------------------------|-------------------------|
G|-------------------------|-----------------------0-|
D|-12-12-12-12-12-12-12-12-|-12-12-12-12-12-12-12--0-|
A|--9--9--9--9--9--9--9--9-|--9--9--9--9--9--9--9--0-|
D|--9--9--9--9--9--9--9--9-|--9--9--9--9--9--9--9----|

   G5
    E  E  E  E  E  E  E  E    E  E  E  E  E  E  E  E
E|-------------------------|--------------------------|
B|-------------------------|--------------------------|
G|-12-12-12-11-11-11-------|-12-12-12-11-11-11--------|
D|-------------------12-12-|-------------------12-12--|
A|-------------------------|--------------------------|
D|-------------------------|--------------------------|

    E  E  E  E  E  E  E  E    E  E  E  E  E  E  E  E
E|-------------------------|--------------------------|
B|-12-12-12-10-10-10-------|-12-12-12-10-10-10--------|
G|-------------------11-11-|-------------------11-11--|
D|-------------------------|--------------------------|
A|-------------------------|--------------------------|
D|-------------------------|--------------------------|

    E  E  E  E  E  E  E  E    E  E  E  E  E  E  E  E
E|-------------------------|--------------------------|
B|-------------------------|--------------------------|
G|--7--7--7--7--7--7--7--7-|--7--7--7--7--7--7--7--7--|
D|--5--5--5--5--5--5--5--5-|--5--5--5--5--5--5--5--5--|
A|--5--5--5--5--5--5--5--5-|--5--5--5--5--5--5--5--5--|
D|--5--5--5--5--5--5--5--5-|--5--5--5--5--5--5--5--5--|

     D5    F#5D5F#G5D5
    E  E  E  E  E  E  E  E    E  E  E E E  Q.     W    +W
E|-------------------------|--------------------|----------|--------*|
B|-12-12-12-10-10-10-------|--------------------|-7--------|-(7)----*|
G|-------------------11-11-|-12p11--------------|----------|--------*|
D|-------------------------|-------12-0---------|----------|--------*|
A|-------------------------|------------9-10----|----------|--------*|
D|-------------------------|--------------------|----------|--------*|

    E  E  E  E  E  E  E  E    E  E  E E E  Q.     W    +W
E|-10-10-10--9--9--9-------|--------------------|----------|--------*|
B|-------------------10-10-|-12p10--------------|----------|--------*|
G|-------------------------|-------11-----------|-7--------|-(7)----*|
D|-------------------------|----------0-7--9----|----------|--------*|
A|-------------------------|--------------------|----------|--------*|
D|-------------------------|--------------------|----------|--------*|
 
      PM      PM
    E  E  E  E  E  E  E  E    E  E  E E E  Q.     W    +W
E|-------------------------|--------------------|----------|--------*|
B|-------------------------|--------------------|----------|--------*|
G|--7--7--7--7--7--7--7--7-|--------------------|----------|--------*|
D|--5--5--5--5--5--5--5--5-|--0--0--4-0-4--5----|-0--------|-(0)----*|
A|--5--5--5--5--5--5--5--5-|--0--0--4-0-4--5----|-0--------|-(0)----*|
D|--5--5--5--5--5--5--5--5-|--0--0--4-0-4--5----|-0--------|-(0)----*|


************************************

| p    Pull-off
| (n)  Ghost note
| x    Dead note
| \    Slide down
| PM   Palm mute
| ~    Vibrato
| tp   Tremolo picking
| *    Natural harmonic

************************************
Suggest correction
Creating personal tab
Creating personal tab
You can edit any tab online and save it as your Personal.

You can edit, replace or remove any tab part or add personal notes – all changes will be seen only by you.

Personal tabs can be accessed anytime from any device, even offline.
Learn more »
comments
print report bad tab
16 comments total. Showing first comments.
0 reply
AsILayLiving 412 Feb 11, 2007 03:51 PM

100% correct, u know why? you coppied it from guitar world magazine. at least give credit man

0 reply
athsmador 279 Feb 18, 2007 06:16 PM

nice guitar world tab

0 reply
FinderofNemo 337 Mar 13, 2007 05:46 PM

Stupid That You Didn't Give Credit, But Oh Well, At Least There's A Perfect Tab Of This Now.

guest
You may want to rate the tab now too:
select rating
Wanna post a correction for this tab? Suggest correction