Oops, an error
Loading. Please wait.

Cant Be Saved Acoustic chords

version 1
version 1

Whole song

Interactive

27,024 views 1 this week
4 commentsread comments
1 2 3 4 5
x 11
add to favorites
×
Save as Personal and add changes to this tab that will be seen only by you. Learn more ›
×
You can save this tab as Personal to edit and correct it or add notes. All changes will be seen only by you. Learn more »
launch autoscroll
font size
0
reset
transpose
0
reset
display chords
guitar tuner
backing track
0:00
0:00
edit
Autoscroll
slow
fast
+/-
esc
set tempo
stop
Strumming
There is no strumming pattern for this song yet. and get +5 IQ
Just an acoustic interpretation because i like minor chords on acoustic guitars:)
Capo 2 everything in relation to capo
listen for Ryhthem


|-----------------------------------------------------------------|
|-----------------------------------------------------------------|
|-----------------------------------------------------------------|
|------0---2-0---------0---2-0----------0---2-0-------------------|
|-2-3----------3---2-3---------3----2-3---------3—2h3p2h3p2h3p2~--|
|-----------------------------------------------------------------|
Riff repeated every now and again.

Verse
Am                 F
Follow your bliss, it reads on my chest.
C
I know I got it tattooed for a reason.
Am               F           C
Why can't I just hold it true?
          Am            F          C
'Cause I'm still crashing all the funerals
          Am      F             C
Of these people that I never knew.

Yeah!

Chorus
Am       F      C              Am       F   
   C
I'm stuck in a coma, stuck in a never-ending sleep.
    Am   F          C                     Am      
      C
And some day I will wake up and realize I made up everything.

Verse
I shut the door and turn all the lights out.
And listen to all the songs that the night shouts.
They go something just like this...
So go fill up a glass with tonic rocks and gin
and drink yourself to happiness.

Chorus
I'm stuck in a coma, stuck in a never-ending sleep.
And some day I will wake up and realize I made up everything.

Bridge
Bm                              Em
We can all hang ourselves from gold chandeliers.
Bm                          Em
And drink goodbye to all, all the pain and fears.
Bm                              Em
Loose lips have sunk this ship, to a shallow grave.
Bm                        Em
Washed up upon the rocks. I won't be saved. I won't be saved.

Chorus
I'm stuck in a coma, stuck in a never-ending sleep.
And some day I will wake up and realize I made up everything.

Ending
 C           Am                 F                 Em
(I won't...) So follow your bliss, it reads on my chest. (...be saved.)
(I won't...) I know I got it tattooed for a reason. (...be saved.)         (I won't...) 
shut the door and, turn all the lights out. (...be saved.)   (I won't...) And listen to 
the songs that the night shouts.(...be saved.)
Suggest correction
Creating personal tab
Creating personal tab
You can edit any tab online and save it as your Personal.

You can edit, replace or remove any tab part or add personal notes – all changes will be seen only by you.

Personal tabs can be accessed anytime from any device, even offline.
Learn more »
comments
print report bad tab
4 comments total. Showing first comments.
+2 reply
bengtaaron 589 Sep 15, 2012 03:16 AM

cool -- but the riff sounds a lot better if you start on the D string rather than the A

0 reply
redstorm1331 10 Dec 01, 2012 07:24 PM

The second half of the chorus sounds a bit funky to me, but overall it sounds pretty good.

+1 reply
xanatos1313 10 Dec 15, 2012 07:06 PM

A better riff is if you do it with the chords. I also like Fmaj7 better too. Like this:

|-0--0--0---0-0-0----0--0--0---0-0-0-----0--0--0---0-0-0----|
|-1--1--1---1-1-1----1--1--1---1-1-1-----1--1--1---1-1-1----|
|-2--2--0---2-0-x----2--2--0---2-0-x-----2--2--0---2-0-x----|
|-2--3--2---x-x-3----2--3--2---x-x-3-----2--3--2---x-x-3----|
|-0--3--3---3-3-3----0--3--3---3-3-3-----0--3--3---3-3-3----|
|-----------------------------------------------------------|

|--------------------|
|-1---1---1---1---1--|
|-0---0---0---0---0--|
|-2h3-2---2h3-2h3-2--|
|-3---3---3---3---3--|
|--------------------|

guest
You may want to rate the tab now too:
select rating
Wanna post a correction for this tab? Suggest correction