Oops, an error
Loading. Please wait.

Choke On This Tab

version 1
version 1

Whole song

Interactive

7,707 views 1 this week
6 commentsread comments
1 2 3 4 5
x 7
add to favorites
launch autoscroll
font size
0
reset
how to read this tab
guitar tuner
×
Best way to learn
"Choke On This"
Autoscroll
slow
fast
+/-
esc
set tempo
stop
(drop 'D' tuning)

.  = palm mute
* = accented
'=' = let ring


Chorus/Intro-  the strumming looks right to me, but listen to the
               song to get it right
e]--------------------------------------------|
b]--------------------------------------------|
g]----------------------666666666-55555555----|
d]-888888-666-44444444--666666666-55555555----|   2X
a]-888888-666-44444444--444444444-33333333----|
d]-888888-666-44444444------------------------|
        ______________^__________________
  **on the 2nd time through, there's a little break right there**

Right before the verse there's a small riff, I can't tell exactly
what it is, because of the weird effect that is used in the recording,
but I think it goes like this:

e]----------------------|
b]----------------------|
g]----------------------|(with the crazy effect*... flanger? + scream tube???)
d]-1313131313-1010101010
a]-1111111111--8-8-8-8-8-|
d]-----------------------| then pick scrape

Verse-  (palm muted)
e]-----------------------------------------------------|
b]-----------------------------------------------------|
g]-----------------------------------------------------|
d]-88888888-666-444444444-333333333333-444444444444----|   2X
a]-88888888-666-444444444-333333333333-444444444444----|
d]-88888888-666-444444444-333333333333-444444444444----|
   ........ ... ......... ............ ...........*

Pre-Chorus -
e]---------] [--------------------------|
b]---------] [--------------------------|
g]---------] [--------------------------|
d]-88888888] [-888888-666666-44444444---|  3X
a]-88888888] [-888888-666666-44444444---|
d]-88888888] [-888888-666666-44444444---|
     "you're... you're addicted to the drug of lust..."

Chorus/Intro

Verse

Pre-Chorus

Chorus

Bridge
e]------------------------------------------|
b]------------------------------------------|
g]------------------------------------------|
d]-11=--------10=--------8=-------3----4--6-|
a]-11=--------10=--------8=-------3----4--6-|
d]-11=--------10=--------8=-------3----4--6-|
     "I here lie in your bed babe..."

e]----------------------------------------------|
b]----------------------------------------------|
g]-66--------55---------------------------------|
d]-66--------55--------88--------33----44--66---|  2X
a]-44--------33--------88--------33----44--66---|
d]---------------------88--------33----44--66---|
   **        **        **        **    **  **

Chorus


End on
e]----
b]----
g]----
d]-11=
a]-11=
d]-11=

 tabbed by ACE, SENSES FAIL RULES!!!, and hey dudes, if anyone knows the
                tabs to 'Rum Is for Drinking, Not for Burning', 'Tie Her
                Down', or 'A Martini Kiss', (by senses fail), please
                post them on this site!, thanks.

                           peace.love.empthay.
Suggest correction
comments
print report bad tab
6 comments total. Showing first comments.
0 reply
xxshinky 10 May 02, 2005 08:00 PM

intro

e]--------------------------------------------|
b]--------------------------------------------|
g]----------------------777777777-66666666----|
d]-999999-777-55555555--777777777-66666666----| 2X
a]-999999-777-55555555--555555555-44444444----|
d]-999999-777-55555555------------------------|

0 reply
xxshinky 10 May 02, 2005 08:00 PM

intro

e]--------------------------------------------|
b]--------------------------------------------|
g]----------------------777777777-66666666----|
d]-999999-777-55555555--777777777-66666666----| 2X
a]-999999-777-55555555--555555555-44444444----|
d]-999999-777-55555555------------------------|

-1 reply
AntiFlag91x 10 May 06, 2006 10:13 PM

Uh, no. The intro is right the way he has it, ur intro is too high. Great tab, no mistakes that i could find

guest
You may want to rate the tab now too:
select rating
Wanna post a correction for this tab? Suggest correction